  0
SECTION
  2
HEADER
  9
$ACADVER
  1
AC1009
  9
$INSBASE
 10
0.0
 20
0.0
 30
0.0
  9
$EXTMIN
 10
-64.0
 20
-18.052574
 30
-17.504861
  9
$EXTMAX
 10
154.714415
 20
151.753921
 30
22.487356
  9
$LIMMIN
 10
0.0
 20
0.0
  9
$LIMMAX
 10
500.0
 20
500.0
  9
$ORTHOMODE
 70
     0
  9
$REGENMODE
 70
     1
  9
$FILLMODE
 70
     1
  9
$QTEXTMODE
 70
     0
  9
$MIRRTEXT
 70
     1
  9
$DRAGMODE
 70
     2
  9
$LTSCALE
 40
1.0
  9
$OSMODE
 70
     0
  9
$ATTMODE
 70
     1
  9
$TEXTSIZE
 40
0.2
  9
$TRACEWID
 40
0.05
  9
$TEXTSTYLE
  7
STANDARD
  9
$CLAYER
  8
0
  9
$CELTYPE
  6
BYLAYER
  9
$CECOLOR
 62
   256
  9
$DIMSCALE
 40
1.0
  9
$DIMASZ
 40
0.18
  9
$DIMEXO
 40
0.0625
  9
$DIMDLI
 40
0.38
  9
$DIMRND
 40
0.0
  9
$DIMDLE
 40
0.0
  9
$DIMEXE
 40
0.18
  9
$DIMTP
 40
0.0
  9
$DIMTM
 40
0.0
  9
$DIMTXT
 40
0.18
  9
$DIMCEN
 40
0.09
  9
$DIMTSZ
 40
0.0
  9
$DIMTOL
 70
     0
  9
$DIMLIM
 70
     0
  9
$DIMTIH
 70
     1
  9
$DIMTOH
 70
     1
  9
$DIMSE1
 70
     0
  9
$DIMSE2
 70
     0
  9
$DIMTAD
 70
     0
  9
$DIMZIN
 70
     0
  9
$DIMBLK
  1

  9
$DIMASO
 70
     1
  9
$DIMSHO
 70
     1
  9
$DIMPOST
  1

  9
$DIMAPOST
  1

  9
$DIMALT
 70
     0
  9
$DIMALTD
 70
     2
  9
$DIMALTF
 40
25.4
  9
$DIMLFAC
 40
1.0
  9
$DIMTOFL
 70
     0
  9
$DIMTVP
 40
0.0
  9
$DIMTIX
 70
     0
  9
$DIMSOXD
 70
     0
  9
$DIMSAH
 70
     0
  9
$DIMBLK1
  1

  9
$DIMBLK2
  1

  9
$DIMSTYLE
  2
*UNNAMED
  9
$DIMCLRD
 70
     0
  9
$DIMCLRE
 70
     0
  9
$DIMCLRT
 70
     0
  9
$DIMTFAC
 40
1.0
  9
$DIMGAP
 40
0.09
  9
$LUNITS
 70
     2
  9
$LUPREC
 70
     4
  9
$SKETCHINC
 40
0.1
  9
$FILLETRAD
 40
0.0
  9
$AUNITS
 70
     0
  9
$AUPREC
 70
     0
  9
$MENU
  1
acad
  9
$ELEVATION
 40
0.0
  9
$PELEVATION
 40
0.0
  9
$THICKNESS
 40
0.0
  9
$LIMCHECK
 70
     0
  9
$BLIPMODE
 70
     0
  9
$CHAMFERA
 40
0.0
  9
$CHAMFERB
 40
0.0
  9
$SKPOLY
 70
     0
  9
$TDCREATE
 40
2450798.746202777
  9
$TDUPDATE
 40
2450800.740633333
  9
$TDINDWG
 40
0.0289662037
  9
$TDUSRTIMER
 40
0.0289662037
  9
$USRTIMER
 70
     1
  9
$ANGBASE
 50
0.0
  9
$ANGDIR
 70
     0
  9
$PDMODE
 70
     0
  9
$PDSIZE
 40
0.0
  9
$PLINEWID
 40
0.0
  9
$COORDS
 70
     1
  9
$SPLFRAME
 70
     0
  9
$SPLINETYPE
 70
     6
  9
$SPLINESEGS
 70
     8
  9
$ATTDIA
 70
     0
  9
$ATTREQ
 70
     1
  9
$HANDLING
 70
     1
  9
$HANDSEED
  5
906
  9
$SURFTAB1
 70
    20
  9
$SURFTAB2
 70
     6
  9
$SURFTYPE
 70
     6
  9
$SURFU
 70
     6
  9
$SURFV
 70
     6
  9
$UCSNAME
  2

  9
$UCSORG
 10
0.0
 20
0.0
 30
0.0
  9
$UCSXDIR
 10
1.0
 20
0.0
 30
0.0
  9
$UCSYDIR
 10
0.0
 20
1.0
 30
0.0
  9
$PUCSNAME
  2

  9
$PUCSORG
 10
0.0
 20
0.0
 30
0.0
  9
$PUCSXDIR
 10
1.0
 20
0.0
 30
0.0
  9
$PUCSYDIR
 10
0.0
 20
1.0
 30
0.0
  9
$USERI1
 70
     0
  9
$USERI2
 70
     0
  9
$USERI3
 70
     0
  9
$USERI4
 70
     0
  9
$USERI5
 70
     0
  9
$USERR1
 40
0.0
  9
$USERR2
 40
0.0
  9
$USERR3
 40
0.0
  9
$USERR4
 40
0.0
  9
$USERR5
 40
0.0
  9
$WORLDVIEW
 70
     1
  9
$SHADEDGE
 70
     3
  9
$SHADEDIF
 70
    70
  9
$TILEMODE
 70
     0
  9
$MAXACTVP
 70
    16
  9
$PINSBASE
 10
0.0
 20
0.0
 30
0.0
  9
$PLIMCHECK
 70
     0
  9
$PEXTMIN
 10
2.0
 20
0.0
 30
0.0
  9
$PEXTMAX
 10
12.0
 20
8.0
 30
0.0
  9
$PLIMMIN
 10
0.0
 20
0.0
  9
$PLIMMAX
 10
12.0
 20
9.0
  9
$UNITMODE
 70
     0
  9
$VISRETAIN
 70
     0
  9
$PLINEGEN
 70
     0
  9
$PSLTSCALE
 70
     1
  9
$TREEDEPTH
 70
  3020
  9
$DWGCODEPAGE
  3
dos850
  0
ENDSEC
  0
SECTION
  2
TABLES
  0
TABLE
  2
VPORT
 70
     1
  0
VPORT
  2
*ACTIVE
 70
     0
 10
0.0
 20
0.0
 11
1.0
 21
1.0
 12
46.404358
 22
98.0
 13
0.0
 23
0.0
 14
0.5
 24
0.5
 15
2.0
 25
2.0
 16
0.0
 26
0.0
 36
1.0
 17
0.0
 27
0.0
 37
0.0
 40
60.0
 41
1.380145
 42
50.0
 43
0.0
 44
0.0
 50
0.0
 51
0.0
 71
     0
 72
   100
 73
     1
 74
     1
 75
     0
 76
     1
 77
     0
 78
     0
  0
ENDTAB
  0
TABLE
  2
LTYPE
 70
     1
  0
LTYPE
  2
CONTINUOUS
 70
    64
  3
Solid line
 72
    65
 73
     0
 40
0.0
  0
ENDTAB
  0
TABLE
  2
LAYER
 70
     7
  0
LAYER
  2
0
 70
    64
 62
     7
  6
CONTINUOUS
  0
LAYER
  2
ASHADE
 70
    64
 62
     7
  6
CONTINUOUS
  0
LAYER
  2
AME_FRZ
 70
    65
 62
     7
  6
CONTINUOUS
  0
LAYER
  2
SURFACE
 70
    64
 62
     7
  6
CONTINUOUS
  0
LAYER
  2
NOSE
 70
    64
 62
     7
  6
CONTINUOUS
  0
LAYER
  2
BASELINES
 70
    64
 62
    -7
  6
CONTINUOUS
  0
LAYER
  2
HUB_FINS
 70
    64
 62
     7
  6
CONTINUOUS
  0
ENDTAB
  0
TABLE
  2
STYLE
 70
     2
  0
STYLE
  2
STANDARD
 70
     0
 40
0.0
 41
1.0
 50
0.0
 71
     0
 42
0.2
  3
txt
  4

  0
STYLE
  2
ASHADE
 70
     0
 40
0.2
 41
1.0
 50
0.0
 71
     0
 42
0.2
  3
simplex
  4

  0
ENDTAB
  0
TABLE
  2
VIEW
 70
     0
  0
ENDTAB
  0
TABLE
  2
UCS
 70
     0
  0
ENDTAB
  0
TABLE
  2
APPID
 70
     6
  0
APPID
  2
ACAD
 70
    64
  0
APPID
  2
AVE_RENDER
 70
    64
  0
APPID
  2
AME_SOL
 70
    64
  0
APPID
  2
AVE_INVOKE
 70
    64
  0
APPID
  2
AVE_FINISH
 70
     0
  0
ENDTAB
  0
TABLE
  2
DIMSTYLE
 70
     0
  0
ENDTAB
  0
ENDSEC
  0
SECTION
  2
BLOCKS
  0
BLOCK
  8
0
  5
1
  2
AVE_RENDER
 70
    64
 10
0.0
 20
0.0
 30
0.0
  1
AVE_RENDER
  3
AVE_RENDER
  0
ENDBLK
  8
0
  5
2
  0
BLOCK
  8
0
  5
3C
  2
AME_NIL
 70
    64
 10
0.0
 20
0.0
 30
0.0
  1
AME_NIL
  3
AME_NIL
  0
ENDBLK
  8
0
  5
3D
  0
BLOCK
  8
0
  5
3F
  2
AME_SOL
 70
    64
 10
0.0
 20
0.0
 30
0.0
  1
AME_SOL
  3
AME_SOL
  0
ENDBLK
  8
0
  5
40
  0
BLOCK
  8
0
  5
91
  2
AME_JNK
 70
     0
 10
0.0
 20
0.0
 30
0.0
  1
AME_JNK
  3
AME_JNK
  0
ENDBLK
  8
0
  5
92
  0
BLOCK
  8
0
  5
134
  2
CONTOUR
 70
     0
 10
0.0
 20
0.0
 30
0.0
  3
CONTOUR
  0
POLYLINE
  8
0
  5
135
 66
     1
 10
0.0
 20
0.0
 30
0.0
  0
VERTEX
  8
0
  5
136
 10
0.0
 20
-15.0
 30
0.0
 42
0.024632
  0
VERTEX
  8
0
  5
137
 10
25.891151
 20
-13.723731
 30
0.0
 42
0.033096
  0
VERTEX
  8
0
  5
138
 10
44.0
 20
-10.714415
 30
0.0
 42
0.07222
 70
     2
 50
13.419344
  0
SEQEND
  8
0
  5
139
  0
POLYLINE
  8
0
  5
13A
 66
     1
 10
0.0
 20
0.0
 30
0.0
  0
VERTEX
  8
0
  5
13B
 10
-58.0
 20
-5.578169
 30
0.0
 42
0.060706
  0
VERTEX
  8
0
  5
13C
 10
-44.455273
 20
-10.606602
 30
0.0
 42
0.033939
 70
     2
 50
346.580656
  0
VERTEX
  8
0
  5
13D
 10
-25.891151
 20
-13.723731
 30
0.0
 42
0.024632
 50
346.580656
  0
VERTEX
  8
0
  5
13E
 10
0.0
 20
-15.0
 30
0.0
 42
0.024632
  0
SEQEND
  8
0
  5
13F
  0
LINE
  8
0
  5
140
 10
0.0
 20
0.0
 30
0.0
 11
0.0
 21
-15.0
 31
0.0
  0
ENDBLK
  8
0
  5
141
  0
BLOCK
  8
0
  5
74F
  2
*U5
 70
    65
 10
0.0
 20
0.0
 30
0.0
  1
*U
  3
*U
  0
LINE
  8
0
 62
     0
  5
750
 10
2.309401
 20
4.0
 30
0.0
 11
2.309401
 21
4.0
 31
2.0
1001
AME_SOL
1070
     1
1071
       26
  0
LINE
  8
0
 62
     0
  5
751
 10
0.0
 20
8.0
 30
0.0
 11
0.0
 21
8.0
 31
2.0
1001
AME_SOL
1070
     1
1071
       25
  0
LINE
  8
0
 62
     0
  5
752
 10
-4.618802
 20
8.0
 30
0.0
 11
-4.618802
 21
8.0
 31
2.0
1001
AME_SOL
1070
     1
1071
       24
  0
LINE
  8
0
 62
     0
  5
753
 10
-6.928203
 20
4.0
 30
0.0
 11
-6.928203
 21
4.0
 31
2.0
1001
AME_SOL
1070
     1
1071
       23
  0
LINE
  8
0
 62
     0
  5
754
 10
0.0
 20
0.0
 30
0.0
 11
0.0
 21
0.0
 31
2.0
1001
AME_SOL
1070
     1
1071
       22
  0
LINE
  8
0
 62
     0
  5
755
 10
-4.618802
 20
0.0
 30
0.0
 11
-4.618802
 21
0.0
 31
2.0
1001
AME_SOL
1070
     1
1071
       21
  0
LINE
  8
0
 62
     0
  5
756
 10
0.0
 20
0.0
 30
2.0
 11
2.309401
 21
4.0
 31
2.0
1001
AME_SOL
1070
     1
1071
       20
  0
LINE
  8
0
 62
     0
  5
757
 10
2.309401
 20
4.0
 30
2.0
 11
0.0
 21
8.0
 31
2.0
1001
AME_SOL
1070
     1
1071
       19
  0
LINE
  8
0
 62
     0
  5
758
 10
0.0
 20
8.0
 30
2.0
 11
-4.618802
 21
8.0
 31
2.0
1001
AME_SOL
1070
     1
1071
       18
  0
LINE
  8
0
 62
     0
  5
759
 10
-4.618802
 20
8.0
 30
2.0
 11
-6.928203
 21
4.0
 31
2.0
1001
AME_SOL
1070
     1
1071
       17
  0
LINE
  8
0
 62
     0
  5
75A
 10
-6.928203
 20
4.0
 30
2.0
 11
-4.618802
 21
0.0
 31
2.0
1001
AME_SOL
1070
     1
1071
       16
  0
LINE
  8
0
 62
     0
  5
75B
 10
-4.618802
 20
0.0
 30
2.0
 11
0.0
 21
0.0
 31
2.0
1001
AME_SOL
1070
     1
1071
       15
  0
LINE
  8
0
 62
     0
  5
75C
 10
0.0
 20
0.0
 30
0.0
 11
2.309401
 21
4.0
 31
0.0
1001
AME_SOL
1070
     1
1071
       14
  0
LINE
  8
0
 62
     0
  5
75D
 10
2.309401
 20
4.0
 30
0.0
 11
0.0
 21
8.0
 31
0.0
1001
AME_SOL
1070
     1
1071
       13
  0
LINE
  8
0
 62
     0
  5
75E
 10
0.0
 20
8.0
 30
0.0
 11
-4.618802
 21
8.0
 31
0.0
1001
AME_SOL
1070
     1
1071
       12
  0
LINE
  8
0
 62
     0
  5
75F
 10
-4.618802
 20
8.0
 30
0.0
 11
-6.928203
 21
4.0
 31
0.0
1001
AME_SOL
1070
     1
1071
       11
  0
LINE
  8
0
 62
     0
  5
760
 10
-6.928203
 20
4.0
 30
0.0
 11
-4.618802
 21
0.0
 31
0.0
1001
AME_SOL
1070
     1
1071
       10
  0
LINE
  8
0
 62
     0
  5
761
 10
-4.618802
 20
0.0
 30
0.0
 11
0.0
 21
0.0
 31
0.0
1001
AME_SOL
1070
     1
1071
        9
  0
ENDBLK
  8
0
  5
762
  0
BLOCK
  8
0
  5
8BB
  2
*U6
 70
    65
 10
0.0
 20
0.0
 30
0.0
  1
*U
  3
*U
  0
POLYLINE
  8
0
 62
     0
  5
8BC
 66
     1
 10
0.0
 20
0.0
 30
0.0
 70
    64
  0
VERTEX
  8
0
  5
8BD
 10
0.0
 20
0.0
 30
2.0
 70
   192
  0
VERTEX
  8
0
  5
8BE
 10
2.309401
 20
4.0
 30
0.0
 70
   192
  0
VERTEX
  8
0
  5
8BF
 10
2.309401
 20
4.0
 30
2.0
 70
   192
  0
VERTEX
  8
0
  5
8C0
 10
0.0
 20
0.0
 30
0.0
 70
   192
  0
VERTEX
  8
0
 62
     0
  5
8C1
 10
0.0
 20
0.0
 30
0.0
 70
   128
 71
    -1
 72
     2
 73
     3
  0
VERTEX
  8
0
 62
     0
  5
8C2
 10
0.0
 20
0.0
 30
0.0
 70
   128
 71
     1
 72
     4
 73
    -2
  0
SEQEND
  8
0
 62
     0
  5
8C3
  0
POLYLINE
  8
0
 62
     0
  5
8C4
 66
     1
 10
0.0
 20
0.0
 30
0.0
 70
    64
  0
VERTEX
  8
0
  5
8C5
 10
2.309401
 20
4.0
 30
0.0
 70
   192
  0
VERTEX
  8
0
  5
8C6
 10
0.0
 20
8.0
 30
0.0
 70
   192
  0
VERTEX
  8
0
  5
8C7
 10
0.0
 20
8.0
 30
2.0
 70
   192
  0
VERTEX
  8
0
  5
8C8
 10
2.309401
 20
4.0
 30
2.0
 70
   192
  0
VERTEX
  8
0
 62
     0
  5
8C9
 10
0.0
 20
0.0
 30
0.0
 70
   128
 71
     1
 72
     2
 73
    -3
  0
VERTEX
  8
0
 62
     0
  5
8CA
 10
0.0
 20
0.0
 30
0.0
 70
   128
 71
     3
 72
     4
 73
    -1
  0
SEQEND
  8
0
 62
     0
  5
8CB
  0
POLYLINE
  8
0
 62
     0
  5
8CC
 66
     1
 10
0.0
 20
0.0
 30
0.0
 70
    64
  0
VERTEX
  8
0
  5
8CD
 10
0.0
 20
8.0
 30
2.0
 70
   192
  0
VERTEX
  8
0
  5
8CE
 10
0.0
 20
8.0
 30
0.0
 70
   192
  0
VERTEX
  8
0
  5
8CF
 10
-4.618802
 20
8.0
 30
0.0
 70
   192
  0
VERTEX
  8
0
  5
8D0
 10
-4.618802
 20
8.0
 30
2.0
 70
   192
  0
VERTEX
  8
0
 62
     0
  5
8D1
 10
0.0
 20
0.0
 30
0.0
 70
   128
 71
     1
 72
     2
 73
    -3
  0
VERTEX
  8
0
 62
     0
  5
8D2
 10
0.0
 20
0.0
 30
0.0
 70
   128
 71
     3
 72
     4
 73
    -1
  0
SEQEND
  8
0
 62
     0
  5
8D3
  0
POLYLINE
  8
0
 62
     0
  5
8D4
 66
     1
 10
0.0
 20
0.0
 30
0.0
 70
    64
  0
VERTEX
  8
0
  5
8D5
 10
-4.618802
 20
8.0
 30
2.0
 70
   192
  0
VERTEX
  8
0
  5
8D6
 10
-4.618802
 20
8.0
 30
0.0
 70
   192
  0
VERTEX
  8
0
  5
8D7
 10
-6.928203
 20
4.0
 30
2.0
 70
   192
  0
VERTEX
  8
0
  5
8D8
 10
-6.928203
 20
4.0
 30
0.0
 70
   192
  0
VERTEX
  8
0
 62
     0
  5
8D9
 10
0.0
 20
0.0
 30
0.0
 70
   128
 71
     1
 72
    -2
 73
     3
  0
VERTEX
  8
0
 62
     0
  5
8DA
 10
0.0
 20
0.0
 30
0.0
 70
   128
 71
     2
 72
     4
 73
    -3
  0
SEQEND
  8
0
 62
     0
  5
8DB
  0
POLYLINE
  8
0
 62
     0
  5
8DC
 66
     1
 10
0.0
 20
0.0
 30
0.0
 70
    64
  0
VERTEX
  8
0
  5
8DD
 10
-6.928203
 20
4.0
 30
2.0
 70
   192
  0
VERTEX
  8
0
  5
8DE
 10
-4.618802
 20
0.0
 30
0.0
 70
   192
  0
VERTEX
  8
0
  5
8DF
 10
-4.618802
 20
0.0
 30
2.0
 70
   192
  0
VERTEX
  8
0
  5
8E0
 10
-6.928203
 20
4.0
 30
0.0
 70
   192
  0
VERTEX
  8
0
 62
     0
  5
8E1
 10
0.0
 20
0.0
 30
0.0
 70
   128
 71
    -1
 72
     2
 73
     3
  0
VERTEX
  8
0
 62
     0
  5
8E2
 10
0.0
 20
0.0
 30
0.0
 70
   128
 71
     1
 72
     4
 73
    -2
  0
SEQEND
  8
0
 62
     0
  5
8E3
  0
POLYLINE
  8
0
 62
     0
  5
8E4
 66
     1
 10
0.0
 20
0.0
 30
0.0
 70
    64
  0
VERTEX
  8
0
  5
8E5
 10
-4.618802
 20
0.0
 30
0.0
 70
   192
  0
VERTEX
  8
0
  5
8E6
 10
0.0
 20
0.0
 30
0.0
 70
   192
  0
VERTEX
  8
0
  5
8E7
 10
0.0
 20
0.0
 30
2.0
 70
   192
  0
VERTEX
  8
0
  5
8E8
 10
-4.618802
 20
0.0
 30
2.0
 70
   192
  0
VERTEX
  8
0
 62
     0
  5
8E9
 10
0.0
 20
0.0
 30
0.0
 70
   128
 71
     1
 72
     2
 73
    -3
  0
VERTEX
  8
0
 62
     0
  5
8EA
 10
0.0
 20
0.0
 30
0.0
 70
   128
 71
     3
 72
     4
 73
    -1
  0
SEQEND
  8
0
 62
     0
  5
8EB
  0
POLYLINE
  8
0
 62
     0
  5
8EC
 66
     1
 10
0.0
 20
0.0
 30
0.0
 70
    64
  0
VERTEX
  8
0
  5
8ED
 10
-6.928203
 20
4.0
 30
2.0
 70
   192
  0
VERTEX
  8
0
  5
8EE
 10
0.0
 20
0.0
 30
2.0
 70
   192
  0
VERTEX
  8
0
  5
8EF
 10
0.0
 20
8.0
 30
2.0
 70
   192
  0
VERTEX
  8
0
  5
8F0
 10
-4.618802
 20
8.0
 30
2.0
 70
   192
  0
VERTEX
  8
0
  5
8F1
 10
2.309401
 20
4.0
 30
2.0
 70
   192
  0
VERTEX
  8
0
  5
8F2
 10
-4.618802
 20
0.0
 30
2.0
 70
   192
  0
VERTEX
  8
0
 62
     0
  5
8F3
 10
0.0
 20
0.0
 30
0.0
 70
   128
 71
    -1
 72
    -2
 73
    -3
  0
VERTEX
  8
0
 62
     0
  5
8F4
 10
0.0
 20
0.0
 30
0.0
 70
   128
 71
     3
 72
     4
 73
    -1
  0
VERTEX
  8
0
 62
     0
  5
8F5
 10
0.0
 20
0.0
 30
0.0
 70
   128
 71
     2
 72
     5
 73
    -3
  0
VERTEX
  8
0
 62
     0
  5
8F6
 10
0.0
 20
0.0
 30
0.0
 70
   128
 71
     1
 72
     6
 73
    -2
  0
SEQEND
  8
0
 62
     0
  5
8F7
  0
POLYLINE
  8
0
 62
     0
  5
8F8
 66
     1
 10
0.0
 20
0.0
 30
0.0
 70
    64
  0
VERTEX
  8
0
  5
8F9
 10
0.0
 20
0.0
 30
0.0
 70
   192
  0
VERTEX
  8
0
  5
8FA
 10
-4.618802
 20
0.0
 30
0.0
 70
   192
  0
VERTEX
  8
0
  5
8FB
 10
-4.618802
 20
8.0
 30
0.0
 70
   192
  0
VERTEX
  8
0
  5
8FC
 10
2.309401
 20
4.0
 30
0.0
 70
   192
  0
VERTEX
  8
0
  5
8FD
 10
0.0
 20
8.0
 30
0.0
 70
   192
  0
VERTEX
  8
0
  5
8FE
 10
-6.928203
 20
4.0
 30
0.0
 70
   192
  0
VERTEX
  8
0
 62
     0
  5
8FF
 10
0.0
 20
0.0
 30
0.0
 70
   128
 71
     1
 72
    -2
 73
    -3
  0
VERTEX
  8
0
 62
     0
  5
900
 10
0.0
 20
0.0
 30
0.0
 70
   128
 71
    -3
 72
     4
 73
    -1
  0
VERTEX
  8
0
 62
     0
  5
901
 10
0.0
 20
0.0
 30
0.0
 70
   128
 71
     3
 72
     5
 73
    -4
  0
VERTEX
  8
0
 62
     0
  5
902
 10
0.0
 20
0.0
 30
0.0
 70
   128
 71
     2
 72
     6
 73
    -3
  0
SEQEND
  8
0
 62
     0
  5
903
  0
ENDBLK
  8
0
  5
904
  0
ENDSEC
  0
SECTION
  2
ENTITIES
  0
INSERT
  8
ASHADE
 62
     1
  5
3
  2
AVE_RENDER
 10
0.0
 20
0.0
 30
0.0
1001
AVE_RENDER
1002
{
1070
     2
1000
Pref
1070
    30
1070
    20
1070
     0
1070
     0
1000

1070
    10
1070
     0
1070
    30
1040
1.0
1070
     1
1040
0.3
1040
0.7
1040
0.0
1040
10.0
1010
-1.0
1020
-1.0
1030
-1.0
1040
0.3
1070
    49
1002
}
  0
INSERT
  8
ASHADE
 62
     3
  5
4
  2
AVE_RENDER
 10
0.0
 20
0.0
 30
0.0
1001
AVE_RENDER
1002
{
1070
     0
1000
Full Opt
1070
     0
1070
     1
1070
     1
1070
     1
1070
     0
1070
     0
1070
     0
1070
     1
1070
     1
1040
0.0001
1040
0.0001
1002
}
  0
INSERT
  8
ASHADE
 62
     4
  5
5
  2
AVE_RENDER
 10
0.0
 20
0.0
 30
0.0
1001
AVE_RENDER
1002
{
1070
     0
1000
Quick Opt
1070
     0
1070
     1
1070
     1
1070
     1
1070
     0
1070
     0
1070
     1
1002
}
  0
POLYLINE
  8
0
  5
2E
 66
     1
 10
0.0
 20
0.0
 30
0.0
  0
VERTEX
  8
0
  5
2F
 10
169.0
 20
96.0
 30
0.0
 42
0.28688
  0
SEQEND
  8
0
  5
30
  0
INSERT
  8
AME_FRZ
  5
66
  2
AME_NIL
 10
19.0
 20
96.0
 30
0.0
 50
270.0
1001
AME_SOL
1002
{
1070
     1
1071
  1701836
1070
  1545
1070
     1
1070
    17
1040
360.0
1010
0.0
1020
0.0
1030
0.0
1010
2.445138
1020
0.701462
1030
0.0
1010
4.146544
1020
2.592485
1030
1.0
1010
8.039937
1020
12.071215
1030
0.0
1010
10.700467
1020
21.966991
1030
1.0
1010
12.591024
1020
32.96948
1030
0.0
1010
13.842198
1020
44.062881
1030
1.0
1010
14.809969
1020
59.517987
1030
0.0
1010
15.132746
1020
75.0
1030
1.0
1010
14.809969
1020
90.482013
1030
0.0
1010
13.842198
1020
105.937119
1030
1.0
1010
12.591024
1020
117.03052
1030
0.0
1010
10.700467
1020
128.033009
1030
1.0
1010
8.039937
1020
137.928785
1030
0.0
1010
4.146544
1020
147.407515
1030
1.0
1010
2.445138
1020
149.298538
1030
0.0
1010
0.0
1020
150.0
1030
1.0
1005
0
1005
0
1005
8E
1040
0.0
1040
1.0
1070
     0
1000
MILD_STEEL
1000
0
1010
19.0
1020
96.0
1030
0.0
1010
0.0
1020
0.0
1030
1.0
1040
4.712389
1002
}
1001
AVE_INVOKE
1000
SOLAVEMESH
  0
VIEWPORT
  8
0
  5
69
 67
     1
 68
     5
 10
7.571646
 20
4.0
 30
0.0
 40
11.281187
 41
8.173913
 69
     1
1001
ACAD
1000
MVIEW
1002
{
1070
    16
1010
0.0
1020
0.0
1030
0.0
1010
0.0
1020
0.0
1030
1.0
1040
0.0
1040
8.173913
1040
7.571646
1040
4.0
1040
50.0
1040
0.0
1040
0.0
1070
     0
1070
   100
1070
     1
1070
     1
1070
     0
1070
     0
1070
     0
1070
     0
1040
0.0
1040
0.0
1040
0.0
1040
2.0
1040
2.0
1040
2.0
1040
2.0
1070
     0
1002
{
1002
}
1002
}
  0
VIEWPORT
  8
0
  5
6A
 67
     1
 68
     4
 10
4.4875
 20
1.9875
 30
0.0
 40
4.975
 41
3.975
 69
     2
1001
ACAD
1000
MVIEW
1002
{
1070
    16
1010
0.0
1020
0.0
1030
0.0
1010
0.0
1020
-1.0
1030
0.0
1040
0.0
1040
13.508805
1040
42.453623
1040
-1.614893
1040
50.0
1040
0.0
1040
0.0
1070
     0
1070
   100
1070
     1
1070
     1
1070
     0
1070
     1
1070
     0
1070
     0
1040
0.0
1040
0.0
1040
0.0
1040
2.0
1040
2.0
1040
2.0
1040
2.0
1070
     0
1002
{
1002
}
1002
}
  0
VIEWPORT
  8
0
  5
6B
 67
     1
 68
     2
 10
4.4875
 20
6.0125
 30
0.0
 40
4.975
 41
3.975
 69
     3
1001
ACAD
1000
MVIEW
1002
{
1070
    16
1010
0.0
1020
0.0
1030
0.0
1010
0.0
1020
0.0
1030
1.0
1040
0.0
1040
116.102351
1040
99.505565
1040
122.875309
1040
50.0
1040
0.0
1040
0.0
1070
     0
1070
   100
1070
     1
1070
     1
1070
     1
1070
     1
1070
     0
1070
     0
1040
0.0
1040
0.0
1040
0.0
1040
2.0
1040
2.0
1040
2.0
1040
2.0
1070
     0
1002
{
1002
}
1002
}
  0
VIEWPORT
  8
0
  5
6C
 67
     1
 68
     3
 10
9.5125
 20
1.9875
 30
0.0
 40
4.975
 41
3.975
 69
     4
1001
ACAD
1000
MVIEW
1002
{
1070
    16
1010
0.0
1020
0.0
1030
0.0
1010
1.0
1020
0.0
1030
0.0
1040
0.0
1040
13.894771
1040
106.195155
1040
-5.383143
1040
50.0
1040
0.0
1040
0.0
1070
     0
1070
   100
1070
     1
1070
     1
1070
     1
1070
     1
1070
     0
1070
     0
1040
0.0
1040
0.0
1040
0.0
1040
0.25
1040
0.25
1040
2.0
1040
2.0
1070
     0
1002
{
1002
}
1002
}
  0
VIEWPORT
  8
0
  5
6D
 67
     1
 68
     1
 10
9.5125
 20
6.0125
 30
0.0
 40
4.975
 41
3.975
 69
     5
1001
ACAD
1000
MVIEW
1002
{
1070
    16
1010
0.0
1020
0.0
1030
0.0
1010
0.612372
1020
-0.612372
1030
0.5
1040
0.0
1040
139.228036
1040
23.731832
1040
-2.096827
1040
50.0
1040
0.0
1040
0.0
1070
     0
1070
   100
1070
     1
1070
     1
1070
     0
1070
     1
1070
     0
1070
     0
1040
0.0
1040
0.0
1040
0.0
1040
2.0
1040
2.0
1040
2.0
1040
2.0
1070
     0
1002
{
1002
}
1002
}
  0
INSERT
  8
AME_FRZ
 62
     7
  5
6E
  2
AME_NIL
 10
-3750.05637
 20
-3654.05637
 30
-142.0
210
-1.0
220
0.0
230
0.0
1001
AME_SOL
1002
{
1070
     1
1071
  1966592
1070
   512
1070
     0
1010
7308.112739
1020
7308.112739
1030
7356.112739
1005
0
1005
0
1005
8E
1040
0.0
1040
1.0
1070
     0
1000
MILD_STEEL
1000
0
1010
-3750.05637
1020
-3654.05637
1030
-142.0
1010
-1.0
1020
0.0
1030
0.0
1040
0.0
1002
}
  0
INSERT
  8
AME_FRZ
  5
8F
  2
AME_NIL
 10
1.0
 20
1.0
 30
1.0
1001
AME_SOL
1004
C7CF0100F301F9010000F801F601F201EA01DB01C001A80094015F01310132006F003201CE00DF005E00C1019501960037004400DC01C2019601600133019800BE002E006101E000C100FB00C301970162013D00E5006301640034019900E900980105001600EB01DD010100BF00DE01C4019901A400B200
1004
9A01D500640103000800C5019B0165018B008700660149007E009C016701700035013A0042006801360167006900370183008400F301EC01DF01C6019D0169013801DA0019011E00F90039011A01FE0059001B01E3005F009D009E01F2006A013A011C017F008D001D019C00A900C200C7019F0107006B01
1004
F7007B00A001EA001000E001C801A1013400BC000200C901A201C9006C0125002A00A3016D013B010E00BD003C01A100B1006E013D01E40056003E01B9006100ED01E1013F00CA01A40104000F00A5017C006F013F016C00710012004000F701F401EE01E201CB01A60170017A00770071012B0040011E01
1004
0C0102018900BB00F100F400A000A7014D00EE00CC015400A80172010600660073011F00D200E301CD01A90174014E0041019E009A00750142017300AF004301DC009300AA0176014401DD001F012300240045012001F300460021016B0088008600CE01AB017500770146012201A5000D015D008C002301
1004
0E018F00EF000F01EB00CD001800FF00EF01E401CF01FC00AC0178011900CB009700D001AD017901800014007A0129006E00AE017B01470135004C0048015B00B7007C014800490124011001DE00D6002000A200E501D101C0005800D201AF0121007D01B6002200B0017E01D3008A007F014A011A002700
1004
4B0131003300F501F001E601D301B10180014C014700D0004D01630072000A00B201B50081014E0125013B0043002601FD00AD005700D401B30109008201AC00D100B401830160004F00E100E701D501B5013C00840178004F010B002F00B6012D00850150015200A7001B00D601B7018601510127011101
1004
0301D9000C0041001100BA00FA002800B8011D00870168005201AE005300F101E801D701B901880153015500A600540174007600890155012801D4004500290151005C0056012A017900B8002B017D00E200BA018A0157012C019400CC002D01120185008E001301ED00B30058012E011401C400E8001501
1004
04012C0030000501F80081002F01160106019000950007019F00A30017010801B400C3000901C700CF009100D801BB018B01C600EC008C01D800B000BC01C8008D0150004B00E901D901F000BD018E01D700590117001C008F015A013600DB00AB00DA01BE01900115009B0091015B01300118010A01F500
1004
E7000B01E600010100014A000D0013006500BF01920192005C018200390093015D015A0062005E01C5006D00A69B534DA8DC591A33E7CE7594A9BA41CD813FF909B7E86DDD9515FD2F9FB75E3EFB2A2BFA5F3F6E45CAD93D409FFC84DBADF1D7D62BFA5F3F6C1F1BBD457F4BE7EDC8B9579045A291C16BDA
1004
E3D76796B997A8AFE97CFDBAF1F7D9515FD2F9FB722E56CA182F0679BB225FEDF58AFE97CFDB07C6EF515FD2F9FB722E55E44FF90F1BD87B920910509FF200000D401F2C01A803E4A000D95FDF8C719B6C9BEBD678DDF8C719B6C9BEBCD3E56C8E00000000004FF9000006A00F9600D401F250006CAFEFC6
1004
38CDB64DF5EB3C6EFC638CDB64DF5E69F2B6470000000000F9645A2AAF68C6967FE9B2AF1F6790A7A1D4F2FD16EECC9E9E8753CBF460767E83C9FCADBA88FFF925FF94F43A9E5FA3C75F27A7A1D4F2FD181BC88FF75F23EE4824602388FF700007C9400103CFA0000F96632B271F7E3C2EB57036DC023910
1004
D0D71E7F3218DD9F6CF947D76DC777AE0000011FEE0000F928002079F40001F2CC6564E3EFC785D6AE06DB8047221A1AE3CFE6431BB3ED9F28FAEDB8EEF5C00000F966153551A3300003E4A00081E7D00007CB2355938FBF1E175AB81B6F83E5F5FF451FAADF3B1B472EBAE8A5D2F19D57E5D75D14BA5E33
1004
AAFDBD50F145DCE4D9DBD50F145DCE4BE7CF9F3861535A0D19809E53FF95D57C07CB0367079EA40F9600D402079D4E32B271F7E3C2EB57A5F18EEDDF3D0E2D93D77F11C774BD39918B47DB3E51F5DB71DDEBFDB3E51F5DB71DDEBF4BDFFCFCE9F67D52F4BDFFCFCE9F67D560483A5EFFE7E74FB3EA9637DE
1004
7B68CBDBC564830B809BC5C6C7FA2CE97BFF9F9D3ECFAAC9046FBCF6D197B78ACC2E026F171B1FE8B2AB011C602389046FBCF6D197B78ACC2E026F171B1FE8B30A9A3868CC0103CEA429E1292B903E4A07CB006A0103CEA692B271F7E3C2EB579F81B6F10D0D71E7F3218DBDA3ED9F28FAEDB8EEF5FED9F2
1004
8FAEDB8EEF5FA5EFFE7E74FB3EA97A5EFFE7E74FB3EAB0241D2F7FF3F3A7D9F54B936BCFB68CBDBC564830B809BC5C6C7FA2CE97BFF9F9D3ECFAAC9064DAF3EDA32F6F15985C04DE2E363FD165560238C047120C9B5E7DB465EDE2B30B809BC5C6C7FA2CC2A6C60D19809E53FF95DFF607C94367076B1803
1004
E580350081E7538CAC9C7DF8F0BAD5E0BC84E75DD2DF6DDBCF5DFC471DD2F4F9257368FB67CA3EBB6E3BBD7FB67CA3EBB6E3BBD7E97BFF9F9D3ECFAA5E97BFF9F9D3ECFAAC09074BDFFCFCE9F67D52C6FBCF6D197B78AC9061701378B8D8FF459D2F7FF3F3A7D9F559208DF79EDA32F6F15985C04DE2E363
1004
FD165560238C0471208DF79EDA32F6F15985C04DE2E363FD166153520D19802079F4078DEB7F58C01F2C03E580350081E7531D5938FBF1E175ABD6B3E7CF9F3F1EF10D0D71E7F3218DD968FB67CA3EBB6E3BBD7FB67CA3EBB6E3BBD7E97BFF9F9D3ECFAA5E97BFF9F9D3ECFAAC09074BDFFCFCE9F67D52F3
1004
EF3DB465EDE2B24190E026F171B1FE8B3A5EFFE7E74FB3EAB241CFBCF6D197B78ACC8701378B8D8FF45955808E3011C4839F79EDA32F6F15990E026F171B1FE8B22D15573604FFE426DFA1B7764EE7EF25E0BBB193FEC9DCFDE4BC17763273B27A813FF909B75BE3AF3B9FBC9782EEC66F6F3B9FBC9782EE
1004
C64E6F223FDDE47FBEBA4155C34847FB80003E4A00081E7D00007CB3B019F3E7CF4638F7036DC0239C507104110BE27C3D93BDF381F4D7B0B81B8000006473723FDC0001F2500040F3E80003E59D306A38F7036DC0239FDC1C410442F89F0F64DB7CE07D35EC2E06E0000011FEE0000F928002079F40001F
1004
2CE98351C7B81B6E011CFEE0E2082217C4F87B26DBE703E9AF617037000003E59854D5468CC0000F928002079F40001F2CF2C06A38F7036DED2DB2B4EE97D5AAEC6D140BC652B2AD2B8CC46F40BC652B2AD2B8CC46FDBD50F145DCE4D9DBD50F145DCE4B800483B7AA1E28BB9C9B3B7AA1E28BB9C97AAE1A
1004
43239B920EDEA878A2EE726CEDEA878A2EE725F0A9AD068CC04F29FFCAEABE03E581B383CF5207CB006A0103CEA680CF9F3E7A31C7BF141C410442F899E6CCA7C3953951BF8FF248C5A277BE703E9AF6170379DEF9C0FA6BD85C0DEF094AE56EB163E5BC252B95BAC58FB002A8BC252B95BAC58F96666BDB
1004
465EDE296099AF6D197B78ACBC252B95BAC58FB2413335EDA32F6F14B04CD7B68CBDBC565570D21C348482666BDB465EDE296099AF6D197B78ACC2A68E1A330040F3A90A784A4AE40F9281F2C01A8040F3A9FB73E7CF9E8C71EF49206DBF141C410442F89F0EF689DEF9C0FA6BD85C0DE77BE703E9AF6170
1004
37BC252B95BAC58F96F094AE56EB163EC00AA2F094AE56EB163E5AEA6BDB465EDE297FA9AF6D197B78ACBC252B95BAC58FB2415D4D7B68CBDBC52FF535EDA32F6F15955C34870D2120AEA6BDB465EDE297FA9AF6D197B78ACC2A6C60D19809E53FF95DFF607C94367076B1803E580350081E7534067CF9F3
1004
D18E3DF8A0E2082217C4DB5F29F0E54E546FE3FCB35CDA277BE703E9AF6170379DEF9C0FA6BD85C0DEF094AE56EB163E5BC252B95BAC58FB002A8BC252B95BAC58F97229AF6D197B78A5A0B35EDA32F6F159784A572B758B1F6483229AF6D197B78A5A0B35EDA32F6F15955C34870D2120C8A6BDB465EDE2
1004
9682CD7B68CBDBC566153520D19802079F4078DEB7F58C01F2C03E580350081E753EACF9F3E7A31C7BFE8F4133E7CF9F8F7E2838820885F13E1ECB44EF7CE07D35EC2E06F3BDF381F4D7B0B81BDE1295CADD62C7CB784A572B758B1F600551784A572B758B1F2FFD35EDA32F6F14B9A535EDA32F6F159784
1004
A572B758B1F6483FE9AF6D197B78A5CD29AF6D197B78ACAAE1A438690907FD35EDA32F6F14B9A535EDA32F6F159168AAADB81F1FF6F63E5C83D98369E8753CBF45BBB306D3D0EA797E8C0EC81E5F8239FFAF3B76F9529E8753CBF478EBE0DA7A1D4F2FD181BC88FF768FB3AE9048ADF091FEE0000F928002
1004
079F40001F2CD4C2F858A07B77F7036DC0239BBC8AB8F3F990C6ECB3BD47D76DC777AE0000011FEE0000F928002079F40001F2CFD617C2C503DBBFB81B6E011CDDE455C79FCC8637659DEA3EBB6E3BBD7000003E59854D5468CC0000F928002079F40001F2CE0E17C2C503DBBFB81B6FD819CF5FF451FAAD
1004
F3B1B472EBAE8A5D2F19D57E5D75D14BA5E33AAFDBD50F145DCE4D9DBD50F145DCE4BE7CF9F3861535A0D19809E53FF95D57C07CB0367079EA40F9600D402079D4FEB0BE16281EDDFDF8CF4776EF9E8716CFCF7F11C774BD39918B459DEA3EBB6E3BBD7B3BD47D76DC777AF7F7FF3F3A7D9F54B7F7FF3F3A
1004
7D9F558120A6DE7B68CBDBC52F4F5E415FECF3A26ACAA2FEFFE7E74FB3EA97677D07AB92DAB25E9EBC82BFD9E744D597F7FF3F3A7D9F55920D9DF41EAE4B6AC969B79EDA32F6F14B555BE12B7C2483677D07AB92DAB25A6DE7B68CBDBC52E153470D19802079D4853C25257207C940F9600D402079D4FE21
1004
7C2C503DBBFBCFC0DB7DDE455C79FCC8636F68B3BD47D76DC777AF677A8FAEDB8EEF5EFEFFE7E74FB3EA96FEFFE7E74FB3EAB02415E6F3DB465EDE296235E415FECF3A26ACAA2FEFFE7E74FB3EA9725EFA0F5725B564B11AF20AFF679D13565FDFFCFCE9F67D5648325EFA0F5725B564B5E6F3DB465EDE29
1004
6AAB7C256F849064BDF41EAE4B6AC96BCDE7B68CBDBC52E15363068CC04F29FFCAEFFB03E4A1B383B58C01F2C01A8040F3A9FD617C2C503DBBFBF61E6CE75DD2DF6DDBFE7BF88E3BA5E9F24AE6D1677A8FAEDB8EEF5ECEF51F5DB71DDEBDFDFFCFCE9F67D52DFDFFCFCE9F67D5604829B79EDA32F6F14BD3
1004
D79057FB3CE89AB2A8BFBFF9F9D3ECFAA5D9DF41EAE4B6AC97A7AF20AFF679D13565FDFFCFCE9F67D56483677D07AB92DAB25A6DE7B68CBDBC52D556F84ADF0920D9DF41EAE4B6AC969B79EDA32F6F14B854D4834660081E7D01E37ADFD63007CB00F9600D402079D4DBE17C2C503DBBFBD6B3E7CF9F3F1E
1004
FBBC8AB8F3F990C6ECB459DEA3EBB6E3BBD7B3BD47D76DC777AF7F7FF3F3A7D9F54B7F7FF3F3A7D9F558120A7E5FB68CBDBC52F4F5E415FECF3A26ACAA2FEFFE7E74FB3EA97C8F7D07AB92DAB25E9EBC82BFD9E744D597F7FF3F3A7D9F55920F23DF41EAE4B6AC969F97EDA32F6F14B555BE12B7C2483C8F
1004
7D07AB92DAB25A7E5FB68CBDBC52C5A29143E4D4D0FFEFEF557B58D7478BF298EE6EC9B692D7EAC044F82D9DD8A734382A07AEBDA692D7EAC044E09BCDB496BF560227C15E44CF36DB7DEBB3E72471FA62679A0001F2500040F3E80003E4BBB875BD6FDDF7DDDC0DB7008E7B7FD6FFB721E0CD5807CB0000
1004
002679A0001F2500040F3E80003E4BBB875BD6FDDF7DDDC0DB7008E7B7FD6FFB721E0CD5807CB000000F92E1530426619A31F33A4B5FEBC44A018CDFFC2D149EEC3968DFB4DFC574BEADE54E7CF9F3E7CF9AB67FDC1F87FD59355F746EE1D6F5BF77DF777036DC02AA63E9C351DD45F8894C7D386A3BA8BF
1004
1CC0904EF4BF30FF7CFAABF8CD3AD6F7C099BDEA898FA70D477517E2253BD2FCC3FDF3EAAFE334EB5BDF0266F798FA70D477517E39801854D2084CC3C1C7CCE92D7FAF1166337FF0B4527BB0EC00F2BF37A31BE5192E6A54D715ACABE5DC64F333A00F966EE1D6F5BF77DF777036DC02AA63E9C351DD45F8
1004
894C7D386A3BA8BF1CC0907FBA5F987FBE7D55E73A75ADEF81337BD5131F4E1A8EEA2FC44BFDD2FCC3FDF3EAAF39D3AD6F7C099BDE63E9C351DD45F8E6006153551099875B8F99D25AFF5E22C00C66FFE168A4F761CB46FDA6FE2BA5F56F2A40F967B707E1FF564D57D53BB875BD6FDDF7DDDC0DB700AA98
1004
FA70D477517E22531F4E1A8EEA2FC730241FEE97E61FEF9F557CAFA75ADEF81337BD5131F4E1A8EEA2FC44BFDD2FCC3FDF3EAAF95F4EB5BDF0266F798FA70D477517E39801854D36109987838F99D25AFF5E225C66FFE168A4F761D80195BE904D95F441E3FA322EC1F17ACCBAAACE803E59BB875BD6FDDF
1004
7DDDC0DB700AA98FA70D477517E22531F4E1A8EEA2FC730241FEE97E61FEF9F5579CE9D6B7BE04CDEF544C7D386A3BA8BF112FF74BF30FF7CFAABCE74EB5BDF0266F798FA70D477517E39801168AD136EAC0417E5483BECB58D7478BF298EE6EC9B692D7EAC044F82D940BF1C31399EB3FDBDA692D7EAC04
1004
4E09BCDB496BF560227C15E447FBB07B5EBA4123B1E988FF700007C9400103CFA0000F9654FEBC7B7F37C3D66E06DB80473C1F3D6358DD66FC56C9D4FB1FFE4E3058AE0000011FEE0000F928002079F40001F2CA9FD78F6FE6F87ACDC0DB7008E783E7AC6B1BACDF8AD93A9F63FFC9C60B15C00000F96615
1004
3551A3300003E4A00081E7D00007CB3A6D4F1EDFCDF0F59B81B6F4BD6F21E3735E0B8EEC6D1A9AE719BED1B84EDBEA6B9C66FB46E13B6FDBD50F145DCE4D9DBD50F145DCE4BE7CF9F3861535A0D19809E53FF95D57C07CB0367079EA40F9600D402079D4D4FEBC7B7F37C3D66FDEAFB5582DF6878C5F7EF2
1004
7C3D7B666BF3231689D4FB1FFE4E3058AF3A9F63FFC9C60B15F37FBFFFD7E98CF3CB9BFDFFFEBF4C679EC09064FE338B29496D592E6FF7FFFAFD319E7B2A8CDFEFFFF5FA633CF2FD7CC8D7D902AE512F5BF783D5C96D592E4FE338B29496D592C83EBE646BEC81572897ADFBC1EAE4B6AC96ABB1E98EC7A6
1004
241F5F3235F640AB944BD6FDE0F5725B564B854D1C34660081E75214F09495C81F2503E580350081E7535CFEBC7B7F37C3D66FBF836DFC1F3D6358DD66FC55ED13A9F63FFC9C60B15E753EC7FF938C162BE6FF7FFFAFD319E79737FBFFFD7E98CF3D8120A0BA4D2E5292DAB25CDFEFFFF5FA633CF65519BF
1004
DFFFEBF4C679E5F0683C6BEC815728964E541EAE4B6AC9682E934B94A4B6AC9641E0D078D7D902AE512C9CA83D5C96D592D5763D31D8F4C483C1A0F1AFB2055CA25939507AB92DAB25C2A6C60D19809E53FF95DFF607C94367076B1803E580350081E75353FAF1EDFCDF0F59BEF3DB23DF35ACD38D5F7EF2
1004
7C3D7B666BCF2B9B44EA7D8FFF27182C579D4FB1FFE4E3058AF9BFDFFFEBF4C679E5CDFEFFFF5FA633CF6048327F19C594A4B6AC9737FBFFFD7E98CF3D95466FF7FFFAFD319E797EBE646BEC81572897ADFBC1EAE4B6AC9727F19C594A4B6AC9641F5F3235F640AB944BD6FDE0F5725B564B55D8F4C763D3
1004
120FAF991AFB2055CA25EB7EF07AB92DAB25C2A6A41A330040F3E80F1BD6FEB1803E5807CB006A0103CEA7063FAF1EDFCDF0F59BF2B3E7CF9F3F1EFE0F9EB1AC6EB37E2B65A2753EC7FF938C162BCEA7D8FFF27182C57CDFEFFFF5FA633CF2E6FF7FFFAFD319E7B0241E5EC97B0729C96D592E6FF7FFFAFD
1004
319E7B2A8CDFEFFFF5FA633CF2DBF991AFB2055CA25CD1F783D5C96D592F97B25EC1CA725B564B20B7F3235F640AB944B9A3EF07AB92DAB25AAEC7A63B1E98905BF991AFB2055CA25CD1F783D5C96D592C5A291ACF01ABE4CADC394EF0F5EDF0FEBC8F15F9F8D504A339BE9F05B221A7D6B937DC8E7BBD4C
1004
172F61A0DFBD6AFCFC6A82519CDF4F82BC8C2E6DB918EBA412275FA4C2E680007C94000F96000079635FDD6962746A16E06DB804727BDED0111A4C92DF700000000C2E680007C94000F96000079EBFBAD2C4E8D42DC0DB7008E4F7BDA022349925BEE00000007CB30A983466007CB0000000367079AB5207
1004
C97CF5FDD6962746A16E06DB805A27BDED0111A4C92DF79EF7B404469324B7DFB7AA1E28BB9C9B3B7AA1E28BB9C97090783AFE1FAFACDF9B25D7F0FD7D66FCB8551DBD50F145DCE4D9E0EBF87EBEB37E6CAA9D7E9275FA4975FC3F5F59BF2FDBD50F145DCE4BD54EBF493AFD2551DBD50F145DCE4D9E0EBF
1004
87EBEB37E6C975FC3F5F59BF2FDBD50F145DCE4BE153483466007CB00000000F960079EBFBAD2C4E8D42DC0DB700B44F7BDA022349925BEF3DEF68088D26496FBF6F543C5177393676F543C5177392E120ACD7F0FD7D66FCD9BD8DB0FD7D66FCB8551DBD50F145DCE4D959AFE1FAFACDF9B2AA75FA49D7E9
1004
37B1B61FAFACDF97EDEA878A2EE725EAA75FA49D7E92A8EDEA878A2EE726CACD7F0FD7D66FCD9BD8DB0FD7D66FCBF6F543C5177392F854D5468CC00006A00F9280D401F2C01A8F2CEBFBAD2C4E8D42DC0DB7FAA75CAADE6A72FB0F63689EF7B404469324B7DE7BDED0111A4C92DF7EDEA878A2EE726CEDEA
1004
878A2EE725F3E7CF9C22D148A1F26A687FF7F7AABCCDB981F4F4B53DFDE7AC2DDE43EBEFB7FD9DD8A734382A07AEBF3727CAFFACE735BC5DE7AC2DDE43EBEFB7FBC899E6E4DF7EE4824596A4CF340003E4A00081E7D00007C96230EB7ADFBBEFBBB81B6E011CDE7FD6FFB721E0CD5807CB0000002679A000
1004
1F2500040F3E80003E4BD3C3ADEB7EEFBEEEE06DB8047379FF5BFEDC878335601F2C000003E59854C1099864B8F99D25AFF5E225008EDFFC2D149EEC39667DA6FE2BA5F56F2A40F96417C1F87FD59355F7474F0EB7ADFBBEFBBB81B6E015531F4E1A8EEA2FC44A63E9C351DD45F8E60483FED2FCC3FDF3EA
1004
AF95B4EB5BDF0266F7AA263E9C351DD45F8897FDA5F987FBE7D55F2B69D6B7BE04CDEF31F4E1A8EEA2FC730030A9A4109987AF1F33A4B5FEBC4591DBFF85A293DD876004EF9BD18DF28C97352A7375ACABE5DC64F333A00F9674F0EB7ADFBBEFBBB81B6E015531F4E1A8EEA2FC44A63E9C351DD45F8E6048
1004
3FED2FCC3FDF3EAAF6E69D6B7BE04CDEF544C7D386A3BA8BF112FFB4BF30FF7CFAABDB9A75ADEF81337BCC7D386A3BA8BF1CC00C2A6AA21330F5E3E67496BFD788B002D37FF0B4527BB0E5AEFDA6FE2BA5F56F2A73E7CF9F3E7CD5B225C1F87FD59355F54F4F0EB7ADFBBEFBBB81B6E015531F4E1A8EEA2F
1004
C44A63E9C351DD45F8E60483DB4BF30FF7CFAABFEF4EB5BDF0266F7AA263E9C351DD45F8897B697E61FEF9F557FDE9D6B7BE04CDEF31F4E1A8EEA2FC730030A9A6C21330F5E3E67496BFD788963B7FF0B4527BB0EC00C93E904D95F441E3FA375D83E2F59975559D007CB3A7875BD6FDDF7DDDC0DB700AA9
1004
8FA70D477517E22531F4E1A8EEA2FC730241FF697E61FEF9F557B734EB5BDF0266F7AA263E9C351DD45F8897FDA5F987FBE7D55EDCD3AD6F7C099BDE63E9C351DD45F8E6004C61F05AF6B8F5D9E5AE65FC853D0EA797E8B77664F4F43A9E5FA303B2860BC19E6EC897FB7FE53D0EA797E8F1D7C9E9E8753C
1004
BF4606FDBD50F145DCE4D9DBD50F145DCE4BD568CCBF95FEB19F3C8F1BD87B97C8FB85578DEC3DCBE47DC9048346600007C9400103CFA0000F964DC3657F7036DFA5E3A35FD6B5AEF1F5368A4CA9D6CE23FDFBEDE932A75B388FF7EFB7EDEA878A2EE726CEDEA878A2EE725E630FDA31A59FFA6CABC7D9E4
1004
29E8753CBF45BBB327A7A1D4F2FD181D9FA0F27F2B6EA23FFE497FE53D0EA797E8F1D7C9E9E8753CBF4606FDBD50F145DCE4D9DBD50F145DCE4BD568CCA9F24EE48CF9E45F23EE791FEFAE2AAF91F73C8FF7D748241A3300003E4A00081E7D00007CB37FA335147A07C6283DC0DB7A2C19B4E964953CBA9B
1004
46DA49FA735192E0AFB6927E9CD464B82BF6F543C5177393676F543C5177392F31876DC0F8FFB7B1F2E41ECC1B4F43A9E5FA2DDD98369E8753CBF4607640F2FC11CFFD79DBB7CA94F43A9E5FA3C75F06D3D0EA797E8C0DFB7AA1E28BB9C9B3B7AA1E28BB9C97AAD1989CF72467CF23C8FF7D768FB3AE2ABC
1004
8FF7D768FB3AE9048346600007C9400103CFA0000F967F233094BEC0E57E6DC0DB7F288B43FDEBC761E7E8B443A49FA735192E0AF0E927E9CD464B82BF6F543C5177393676F543C5177392F318736EAC0417E5483BECB58D7478BF298EE6EC9B692D7EAC044F82D940BF1C31399EB3FDBDA692D7EAC044E0
1004
9BCDB496BF560227C15FB7AA1E28BB9C9B3B7AA1E28BB9C97AAD199DECAFDC919F3C8D1F675D83DAF5C5568FB3AEC1ED7AE9048346600007C9400103CFA0000F96794467C7D07F452E1DC0DB793F3E4349E26D633D168C1F9E6734796F1B5ABE0FCF339A3CB78DAD5FB7AA1E28BB9C9B3B7AA1E28BB9C979
1004
8C3A1F26A687FF7F7AABDAC6BA3C5F94C773764DB496BF560227C16CEEC539A1C1503D75ED3496BF56022704DE6DA4B5FAB0113E0AFDBD50F145DCE4D9DBD50F145DCE4BD568CCE07061DC2467CF6DBEF5D83DAF5C5A326FBF72DC8C75D83DAF5D6DBEF5D20904833E7CF9F46600007C9400103CFA0000F9
1004
67777F10F771BD3D62E06DBE6B6F3F5E35433BA0DD168F2AD77CF1B5AC253DFCAB5DF3C6D6B094F7EDEA878A2EE726CEDEA878A2EE725E630F59E0357C995B8729DE1EBDBE1FD791E2BF3F1AA0946737D3E0B64434FAD726FB91CF77A982E5EC341BF7AD5F9F8D504A339BE9F057EDEA878A2EE726CEDEA8
1004
78A2EE725EAB46678538EE48CF9E460F6BD75B918EB8B464DF7EE5B918EBB07B5EBADB7DEBA41209067CF9F3E8CC0000F928002079F40001F2CD7BDFC43DDC6F4F58B81B6F1BEF3F5E35433BA0DD1689EABBE78DAD6129EF3D577CF1B5AC253DFB7AA1E28BB9C9B3B7AA1E28BB9C9798C3A1F26A687FF7F7
1004
AABCCDB981F4F4B53DFDE7AC2DDE43EBEFB7FD9DD8A734382A07AEBF3727CAFFACE735BC5DE7AC2DDE43EBEFB7FBF6F543C5177393676F543C5177392F55A33399A4A042448C1ED7AEC9BEFDC2D1937DFB96E463AEC1ED7AEB6DF7AE90482419F3E7CFA3300003E4A00081E7D00007CB373BF887BB8DE9EB
1004
17036DE37DE7EBC6A867741BA2D1FDD77CF1B5AC253DFFBAEF9E36B584A7BF6F543C5177393676F543C5177392FA4D1FA373
1005
90
  0
INSERT
  8
AME_FRZ
  5
90
  2
AME_NIL
 10
1.0
 20
1.0
 30
1.0
1001
AME_SOL
1004

1005
0
  0
LINE
  8
BASELINES
  5
A9
 10
38.0
 20
100.0
 30
0.0
 11
54.0
 21
100.0
 31
0.0
  0
INSERT
  8
AME_FRZ
  5
DD
  2
AME_NIL
 10
1.0
 20
1.0
 30
1.0
1001
AME_SOL
1004
C7CF0100C501E201E001DD01D701CB01B6019401620180005D0063013E010A0091003F01E7009F009501640140015200C3004101B70026011B00FE006501420127014600490028016500BB00430129017C007E002A0182008B00B7019601F500A300F000CC01B801BC009701B8003100B901980166015E00
1004
4B00950099012B00FD00D801CD01BF00BA019A015F00670118005B009B016801CD00D80069014800BD00CE01BB019C016A014401160017004501850084006B01460122002C004701D10089009D01C40057004000DE01D901CF01BC019E016C01480153002B01EE001A000B006D011100CB003F00BD019F01
1004
6A00FB00A0016E01A200DE006F01A800CA00D001BE01A10170012F00300071016200CF00A20172014901DF00C1004A01C900B30073014B014500F1004C0178004F00BF01A30174014D01F200EB004E015C00670075014F012C01A7004A002D015600580050012E015A00A4002F01B200110108001500A401
1004
7601510130011201330034001301E300D00031011401F800CE0015016B006E00520132011601730076001701E600B60033011801B500F300190183008C007701530134011A018E0094001B019700980035011C01E8009B001D01E90001010C000D00540136011E0102010E0000010301190020001F010401
1004
24002A0005013200DA003701200106013800F900070142004300210108014700D4000901D300D200DA01D101C001A5016D007801AF00E200A6017901130050007A0151001C00C101A7017B01D500E4007C011D006000A8017D01270069007E0177005501380122010A014C0055000B01F6006F0023010C01
1004
7F0086000D019C00A0009E00D201C2017200A9017F016100880080019D007B00FF00E1010000DF01DB01D301C301AA0181014D005601DB00D90082015701BE0041005801F700390124010E01A900AB000F01AD00B00003000100C401C000EF00D401C501AB01BA0070000200C601AC018301AE0029003C00
1004
AD018401EA00E0008501C8005900DC01D501C701AE01860121002500870159017D0096005A017A003700AF0188015B013E00F4005C013A01060007003B010F0023007100C801B00189015D013C01AA009A003D01C50025011001B400B9001200FC008A018F005400B1018B013D0028008C0104000900D601
1004
C901B2018D01E10044008E012D005E010500C200B3018F015F01DD00AC0010001F00CA01B4019001680075009101FA00A100B50192019200DC009301600164006C006101B1002E00DCC3F730FC384B8DD2F7BE81186C3EC6A30A56002C306019740548299B9F8932F54AC005860C0320592B0016183003A1
1004
B6AEBD20D6FFC9FD52B0016183003E3525586B17BDF82AFFE459A3C397DDF6CA7DB5FB5FFC90B1BF6BFE75BB4782D9BBECACFB6BF6BFE7C65B95EB203B54F7D63135A5B95F55541A355555555555555270176D55064AAAA57776DF48533FF4F5555E6BE9DBEDD37F98291AAA0D1AAA0D1AAAAAAAA5B95F5C
1004
B55938F12AB273312AA832555068D564E6625564E3C46904F45EFD283FDEC33776DF48533FF4EB031E3D0EEF53BE8F34BC9DBEDD37F98291AAA0D1AAAAAAAAAAA0C981B955C5F9A4DC3406F47A3322F4F558E18DAD60A22F3C05DC055C2CCFDABBD7F3FABF5D1AB887880EA103A9CBA3CCAD131AA8323482
1004
7A2F7E941FEF619BBB6FA4299FFA75818F1E8777A9DF46B0B53D8F7B2C691502D4F63DECB1A4295555AD42D4F63DECB1A45468FB4D2D77641838CF36D424CEAFE1C5A9EC7BD96348531AB47DA696BBB20C1C679B6A126757F0FAD851EF7E147BDF8D5A3ED34B5DD9060E33CDB50933ABF87C0DCC6AE2FCD7
1004
9DD019337B631E22F4F558E18DAD60A47D18680DE8F4664AAA0D1AAC9CCC4AAC9C788D209E8BDFA507FBD866EEDBE90A67FE9D6063C7A1DDEA77D1AC2D4F63DECB1A4540B53D8F7B2C690A55556B50B53D8F7B2C69151A3ED34B5DD9060E33CDB50933ABF8716A7B1EF658D214C6AD1F69A5AEEC830719E6
1004
DA8499D5FC3EB6147BDF851EF7E3568FB4D2D77641838CF36D424CEAFE1F03735AB8BF345B8680DE8F46644DE8EB1C31B5AC148FE602EE02AE1667EDC0FD550C2E2008BF8C840EA72E8F32B44C6AA0C8D209E8BDFA507FBD866EEDBE90A67FE9D6063C7A1DDEA77D1AC2D4F63DECB1A4540B53D8F7B2C690
1004
A55556B50B53D8F7B2C69151A3ED34B5DD9060E33CDB50933ABF8716A7B1EF658D214C6AD1F69A5AEEC830719E6DA8499D5FC3EB6147BDF851EF7E3568FB4D2D77641838CF36D424CEAFE1F03730FAB8BF34096F64D4E5F46B8BD37A3AC70C6D6B0510B70D01BD1E8CC98D541A20BAE6FD5C00F88BD84F55
1004
A16FADF55AEC788D209E8BDFA507FBD866EEDBE90A67FE9D6063C7A1DDEA77D1AC2D4F63DECB1A4540B53D8F7B2C690A55556B50B53D8F7B2C69151A3ED34B5DD9060E33CDB50933ABF8716A7B1EF658D214C6AD1F69A5AEEC830719E6DA8499D5FC3EB6147BDF851EF7E3568FB4D2D77641838CF36D424C
1004
EAFE1D2AC358C295800B0C18065D01520A66E7E24CBD52B001618300C8164AC005860C00E86DABAF4835BFF27F54AC005860C00F8C60654E6FB558D58C57AD18196AAA8346AAAAAAAAAAAAAA4E02EDAAA0D1AAAA58E8744777DB29EAAABCD67F43F7D83A69CB3FA1FBEC19B99EAAAAAAAAAAA8C0CB555419
1004
3DD59399EDAAC9CCF6F83DEF2399EDF07BDE473312AA8347D562C86159FF95FD8B1D0E88EEFB653F2EBDEB7B9407B84A68F359FD0FDF60E9A72CFE87EFB066E67AAAAAAAAAAA0D1C0DCD6AE9F9AAAA0C9EEAC9CCF6D564E67B7C1EF791CCF6F83DEF2399895541A387EE3218567FE57F62968744777DB29F
1004
CEBF604FFAEF6F98F47740BBDEF7BFC8E0BBDEF7BFC8FDBE5E3D69783BF2EDF2F1EB4BC1DE7AAAAAAC6AEDF2F1EB4BC1DF976F978F5A5E0EF3EB6147BDE57AD63576F978F5A5E0EFCBB7CBC7AD2F0779F0373BAAE9F9AAAA0D1F07BDE473312ABD78BCA97F22AC9CCC4AAA0C9E77BDE47331163F43F7D83A
1004
69C87036E88EEFB653F9FDB792EDD8E175ECEEB3FA1FBEC19B99F3FA1FBEC19B99D44A33BA856C682289467750AD8D08D5556B5289467750AD8D04D3A9B086868A25553488A2519DD42B634238D5A753610D0D144AAA691358AF5A2BD6B1AB4EA6C21A1A289554D22606E79AAE9F9A5C8F7BC8E72C5FC8AB
1004
2733DB55419391564E662555064F3BDEF239989FF29CAB7AF406002F6741A1D11DDF6CA7CFE87EFB074D27EEB3FA1FBEC19B99F3FA1FBEC19B99D44A33BA856C682289467750AD8D08D5556B5289467750AD8D04D3A9B086868A25553488A2519DD42B634238D5A753610D0D144AAA691358AF5A2BD6B1AB
1004
4EA6C21A1A289554D22606E729574FCD5550640AF7BC8E67B6A852D0C9D9C8AB273312AA83279DEF791CCC45DBF43F7D83A693F41A1D11DDF6CA75FF6F34C5F359FB5E25FDD67F43F7D833733E7F43F7D833733A89467750AD8D045128CEEA15B1A11AAAAD6A5128CEEA15B1A09A753610D0D144AAA69114
1004
4A33BA856C68471AB4EA6C21A1A289554D226B15EB457AD63569D4D843434512AA9A44C0DCE56AE9F9AE97BDFCB714C3D80E559399895541A3C8AB273312AA83279DEF791CCC46D00EC06F97ED5E45E381B744777DB29F3FA1FBEC1D34E5DD67F43F7D833733E7F43F7D833733A89467750AD8D045128CEE
1004
A15B1A11AAAAD6A5128CEEA15B1A09A753610D0D144AAA691144A33BA856C68471AB4EA6C21A1A289554D226B15EB457AD63569D4D843434512AA9A444AB0D6609DD4A46566E795CEF35B2CD936A775291959B9E4BA53BA948CACDCCEBE1AAF60738CBEEB98EDA9DD4A46566E67C63032AB9D9AAC6AC6FCC
1004
68C0CB55541A355555555555555270176D55068D5552F0557C71BE958803D55579A59AAD218B0491AF2E176E48BE271D48F5555555555546065AAAA0C9EEAC9CCF6D564E67B7C1EF791CCF6F83DEF2399895541A3DCDDBDC5030608EC5E0AAF8E37D2B10076C5D4EABF0DE0ECA5A3CD2CD5690C58248D797
1004
0BB7245F138EA47AAAAAAAAAAA0D1C0DCD6AE9F9AAAA0C9EEAC9CCF6D564E67B7C1EF791CCF6F83DEF2399895541A3845D3BDC5030608EC06155F1C6FA56200FE3D7B2D7D18BAB8DA3BAF42F56FEF2069E653FA17AB7F79034F329FB7CBC7AD2F077E5DBE5E3D69783BCEF7BDF5581B9DD574FCD555068F8
1004
3DEF23998955EBC5E54BF91564E662555064F3BDEF23998802AB4862C1246BCB6155F1C6FA56200EBCD89683435702BBB3BAE176E48BE271D48FC2EDC917C4E3A91F78737287C317E9378737287C317EA3558D5A753610D0D1446BC220F354FFBED1D6ADE1CDCA1F0C5FA4F5FC2E4F2A2C43235E11079AA7
1004
FDF68EF0E6E50F862FD471ABD7F0B93CA8B10C9A753610D0D144D6FCC6BF31AC6AF5FC2E4F2A2C43269D4D8434345130373CD574FCD2E47BDE473962FE4559399EDAAA0C9C8AB273312AA83279DEF791CCC42EC19721800003DD8B9D55F1C6FA56200EB355A4316092359FBAE176E48BE271D48FC2EDC917
1004
C4E3A91F78737287C317E9378737287C317EA3558D5A753610D0D1446BC220F354FFBED1D6ADE1CDCA1F0C5FA4F5FC2E4F2A2C43235E11079AA7FDF68EF0E6E50F862FD471ABD7F0B93CA8B10C9A753610D0D144D6FCC6BF31AC6AF5FC2E4F2A2C43269D4D843434513037394ABA7E6AAA832057BDE4733D
1004
B54296864ECE455939989554193CEF7BC8E6627355A4316092359D73AABE38DF4AC401C085E0FAE5E95F53197F75C2EDC917C4E3A91F85DB922F89C7523EF0E6E50F862FD26F0E6E50F862FD46AB1AB4EA6C21A1A288D78441E6A9FF7DA3AD5BC39B943E18BF49EBF85C9E54588646BC220F354FFBED1DE1
1004
CDCA1F0C5FA8E357AFE1727951621934EA6C21A1A289ADF98D7E6358D5EBF85C9E5458864D3A9B086868A2606E72B574FCD74BDEFE5B8A61EC072AC9CCC4AAA0D1E455939989554193CEF7BC8E66217B7BAE5332B9A0C45FB0AAF8E37D2B100759AAD218B0491AF2EEB85DB922F89C7523F0BB7245F138EA
1004
47DE1CDCA1F0C5FA4DE1CDCA1F0C5FA8D563569D4D843434511AF0883CD53FEFB475AB78737287C317E93D7F0B93CA8B10C8D78441E6A9FF7DA3BC39B943E18BF51C6AF5FC2E4F2A2C43269D4D8434345135BF31AFCC6B1ABD7F0B93CA8B10C9A753610D0D1445B5022F7BF055FFC8B347872FBBED94FB6B
1004
F6BFF968AFDAFF9D7F74782D9BBED94FB6BF6BFE7EDF2F1EB4BC1DF976F978F5A5E0EF3EB74FC995A9AAAC6C65901DAA4E6FB555ACB203B549CDF6A9EF7BF1ABA7E6AAA8327BAB2733DB559399EDF07BDE4733DBE0F7BC8E662555068E0B7190C2B3FF2BFB171E8744777DB29C35EE5BDCA03DC25347758D
1004
55FF3E3557FCFDBE5E3D69783BF2EDF2F1EB4BC1DE75B5025673D264022B7872C39D1E1CBEEFB2B3A06E69320115BC3966E69320115BC27C3BD1E0B66EFB2B3A06E69320115BC27EDF2F1EB4BC1DF976F978F5A5E0EF3EB74FC9AF967AB1B1964076A95CECD556B2B9D9AA5901DAAC6A7BDEFE9F9AAAA0C9
1004
EEAC9CCF6D564E67B7C1EF791CCF6F83DEF2399895541A23210CE0FF0A72D9D9875A1D11DDF656737CA2E36F1775F649A3BACF9E9063BD5BC27CF9E9063BD5BC27EDF2F1EB4BC1DF976F978F5A5E0EF3ADA81602CB21CB4B83B26F8D326C820D2D4780721CB4B83B25580E439697071D6D1A646B041A5A8F
1004
00E439697071FB7CBC7AD2F077E5DBE5E3D69783BCFADD3F2BC4282D6363632737DAA573B3555AC9CDF6A95CECD563563574FCD555064F7564E67B6AB2733DBE0F7BC8E67B7C1EF791CCC4AAA0D15F903B7A7F97F8A2D5D9F63533C410696A3FD993A3AECF51E0D68EE93D6592BC197071D3D6592BC19707
1004
1FB7CBC7AD2F077E5DBE5E3D69783BCEBE5D2BE2
1005
DE
  0
INSERT
  8
AME_FRZ
  5
DE
  2
AME_NIL
 10
1.0
 20
1.0
 30
1.0
1001
AME_SOL
1004

1005
0
  0
INSERT
  8
AME_FRZ
  5
F8
  2
AME_NIL
 10
1.0
 20
1.0
 30
1.0
1001
AME_SOL
1004
C7CF0100E701F301F101EE01E801DC01C701BC00F000C801FB00A601EA00C400DD01C901A7017301DB00C2007401D5006200A801CD003D00CA01A9014F001C000200E901DE01CB01AA01750147012C01170105017A007E0006017F008700180107018900970008019A009D00AA00BD00B800AB0176011300
1004
8F00770168002600CC01AC017801AF0048011B009100790149019000A7004A01D9006000AD017A014B0185002D0119010901B600E3000A01C700CC000D00FD000800DF014000CD01AE01FC007B01590042000100EF01EA01E001CE01AF0158007C01B2004800B0017D01F200A8007E017700F100CF01B101
1004
7F014A00780080014C01140016004D013100BB00B20181014E0137007D004F012E01150035002F016E006F008201500130017B007C003101CF001A010B01D200D7000A00B500E101D001B3012D0083015000E900B40184012700A3003C00D101B5018501DC004D0086012C008800B601870151010500CA00
1004
520120002E0088015301A5005C001F00EB01E2013F00D201EF00B70189015B0036008A015401EB0007000400E301FF00D301B801C3008B014900F500B9018C015501F60011005601D400D1008D0157014100800058014C00DE00F2010000F001EC01E401D401BA018E0159019300B0005A0132010F001200
1004
33011E00A9008F015B013401C5003A003501FE004E005C0136016700EE0037018100E700BB0190015D013801E5001B011D00220039011C012A0033001D01DA0039005E013A011E01EC0084001F018600FA003B0120018D00D30021019B00A2001000D501BC019101BA005A0092015F013C012201AD00B100
1004
2301B4000C01D8000C00CB009F00BD0193015E0017009401F800E400E501D601BE01950198006001A000C600960161015200960062015F00D600BF010600970109003800D701C0007200ED01E601D801C001980119006301AE00E000990164012300690065012B003000C1019A0166014B003D01B3006400
1004
57009B0144009500D901BF00C2019C016D006701F70025009D0168014600CE009C00E701DA01C3019E01750061009F0128005400C401A00169013E019400F30003002100A101E1006A018B000E00DB01C501A2016B016A0071006C0182002F00A3016D013E00DD006E01F4005100C601A4016F013F019E00
1004
C80040019900A400700141015D0070004201DF008C00A5017101430124011A00320025017300740044012601E200760027010D01240034000E01430047007201450128010F015600650010018E00920029011101E600A1001201A600F90046012A011301AC00B7001401BE00C1002B011501010100011800
1004
0201290055001601030163006B0004016C0079000DE90DE9C1C23E38E73AB49DA6F8FABE417E599D8567EED8B3812FFEC1BFCFE1B27017E599D8567EEC580BF2CCEC2B3F4DC7F87BFF97F89D7819380BF2CCEC2B3F4C7D41220F11F6D22E7003337653FF829229F852686EEFB6917380199BB165FF4D22E7
1004
003334C53C87E727C35F523777DB48B9C00CCD31F210C4A167834E751F691BE9086555502CAAAAAAAAAAAAAA914A6AEAA81EAAAA88056038C7C1C66D5554B89F7EA94FEEC4BFE8F195540B2AA81655555555210CA47739DD6EE5755B6ED015540B2AA816556DBB40556DBB80FC765B22F137610E4080718F
1004
838CDBB69AF789D8861784AE2FEDC4694FEEC4BFE8F195540B2AAAAAAAAAA81E964355697C2B4DF6CE4579F834C47DD111D2F83BCE92783EFF5E392380552C9C027696426C5A066E77F970D3F0D53575540F5F8ECB645E26EC21C8100E31F0719B76D35EF13B10C2F091E534842D4A356FFB29A4216A51AB
1004
7D355550F529A4216A51AB7FD9FD81EE68DFFDA3B37BB884BAB91C5406534842D4A356FA63EA7F607B9A37FF68ECDEEE212EAE47150187B84139DC209CE3EA7F607B9A37FF68ECDEEE212EAE47150196431F5697C29749DF568D3B114E2B47DD111D2F83BCEB4DF6CE4579F834CAAA05955B6ED0155B6EE0
1004
3F1D96C8BC4DD84390201C63E0E336EDA6BDE2762185E123CA69085A946ADFF6534842D4A356FA6AAAA1EA534842D4A356FFB3FB03DCD1BFFB4766F77109757238A80CA69085A946ADF4C7D4FEC0F7346FFED1D9BDDC425D5C8E2A030F708273B84139C7D4FEC0F7346FFED1D9BDDC425D5C8E2A032C861E
1004
AD2F85717ED9C8AF3F0699FEFF144474BE0EF19F2E0FBFD78E48E0311FBDB7D0E4D2F10AFE77F970D3F0D53575540F5F8ECB645E26EC21C8100E31F0719B76D35EF13B10C2F091E534842D4A356FFB29A4216A51AB7D355550F529A4216A51AB7FD9FD81EE68DFFDA3B37BB884BAB91C5406534842D4A356
1004
FA63EA7F607B9A37FF68ECDEEE212EAE47150187B84139DC209CE3EA7F607B9A37FF68ECDEEE212EAE47150196437A6AD2F85662530B2002CAFFA85FFBFC5111D2F83BC6717ED9C8AF3F0698E739CE734CE6D17F66BA6C405F603C74392FFC87CA58501F8ECB645E26EC21C8100E31F0719B76D35EF13B10
1004
C2F091E534842D4A356FFB29A4216A51AB7D355550F529A4216A51AB7FD9FD81EE68DFFDA3B37BB884BAB91C5406534842D4A356FA63EA7F607B9A37FF68ECDEEE212EAE47150187B84139DC209CE3EA7F607B9A37FF68ECDEEE212EAE47150182441EED679285F2F55EECFCF4307C518AF245EC0E79285F
1004
2F55EECDDC40942F97AAF4DF6E110195DB0ADCA6073C942F97AAF4C7C9552454F1B1F51F06F4D2554AAAA8165555555555555548A53575540B2AAAB3DEBF45E77FC8C6AAAA5C4BC4FEC106E60AF5B0A24447DF071C61AAAAAAAAAAAA92AA555540F4BF56DBB4AEAB6DDA57ECE73BADDA57ECE73BADDA02AA
1004
8161497ADCC44062730BCF7AFD179DFF231936D2E0DEEC273C6642E25E27F608373057AD8512223EF838E30D555555555540B16430F51CF0AAAA07A5FAB6DDA5755B6ED2BF6739DD6ED2BF6739DD6ED015540B386D8DCC44062730B2ABD7E8BCEFF918C1FFA70BDFFEA5F0CC86FB4492F9C4DFF3FCFC8DA2
1004
497CE26FF9FE7E46F251CDE617AEB6DE4A39BCC2F5D6339CE7552C866FA8E78555502CF6739DD6ED01558F4ADD21FA55B6ED015540F422E73BADDA03D04FEC106E60AF5B1C7AFD179DFF231B0EC9FFBD9769C098B6F8512223EF838E30C289111F7C1C71864327C692DBE39FD2193E3496DF1CF6551F5151
1004
F5C67CE88779D6BE5BC41A0C14C1EA4327C692DBE39FD151F5C67CE88779D17E06CD3FBD9F562193E3496DF1CF61F56BE5BC41A0C14C2FC0D9A7F7B3EAC1E0DE9A0DE9A3EAD7CB78834182985F81B34FEF67D58B2197151CF0ACE739DD6F8210FD2ADB7695D5503D7D2ADB7680AAA07A11739DD6ED00278A
1004
DF7FA65042FFF0BCABD7E8BCEFF918CBC4FEC106E60AF466F8512223EF838E30C289111F7C1C71864327C692DBE39FD2193E3496DF1CF6551F5151F5C67CE88779D6BE5BC41A0C14C1EA4327C692DBE39FD151F5C67CE88779D17E06CD3FBD9F562193E3496DF1CF61F56BE5BC41A0C14C2FC0D9A7F7B3EA
1004
C1E0DE9A0DE9A3EAD7CB78834182985F81B34FEF67D58B21B55473C2AAA81E955CE775BB4AEA88954905FD2ADB7680AAA07A11739DD6ED009E9FD820DCC15E8D957AFD179DFF2318D8A31437164526C42DF0A24447DF071C618512223EF838E30C864F8D25B7C73FA4327C692DBE39ECAA3EA2A3EB8CF9D1
1004
0EF3AD7CB78834182983D4864F8D25B7C73FA2A3EB8CF9D10EF3A2FC0D9A7F7B3EAC4327C692DBE39EC3EAD7CB78834182985F81B34FEF67D583C1BD341BD347D5AF96F106830530BF03669FDECFAB1643376A39E1471CE7609A5CD169CD5B6ED015540B3E956DBB4055503D08B9CEEB7680F4B5E917DAFE
1004
5FA909C7AFD179DFF2319789FD820DCC15EB66F8512223EF838E30C289111F7C1C71864327C692DBE39FD2193E3496DF1CF6551F5151F5C67CE88779D6BE5BC41A0C14C1EA4327C692DBE39FD151F5C67CE88779D17E06CD3FBD9F562193E3496DF1CF61F56BE5BC41A0C14C2FC0D9A7F7B3EAC1E0DE9A0D
1004
E9A3EAD7CB78834182985F81B34FEF67D581220F66A2E1FC9AD7DFE3B7D71626D8A7FB7C39767CA2E1FC9AD7DFE3B62245C3F935AFBFC4C8E8853EE15F291319F28B87F26B5F7F898F92AA5E622363EA3EC91E92AA555540B2AAAAAAAAAAAAAA4529ABAAA0595555A902797FDFD17A355552E2C7C97C0B02
1004
1F02BEDDDEFFB25932981335555555555552554AAAA81E97EADB7695D56DBB4AFD9CE775BB4AFD9CE775BB4055502C25C3F4B39FAF42F5204F2FFBFA2F46F059C2881BFFB8CEB217163E4BE05810F815F6EEF7FD92C994C099AAAAAAAAAAA8162C861EA39E155540F4BF56DBB4AEAB6DDA57ECE73BADDA57
1004
ECE73BADDA02AA8167A70FD2CE7EBD0B46E54F2FFBFA2F46C4FFCFF3C49FFA5846C86F9F58BBF0FC7F82E568CFAC5DF87E3FC172B46F251CDE617AEB6DE4A39BCC2F5D6339CE7552C866FA8E78555502CF6739DD6ED01558F4ADD21FA55B6ED015540F422E73BADDA013BF25F02C087C0AFB77102797FDFD
1004
17A3148A0AA1F9F12A48B6FBBBDFF64B26530266EEF7FD92C994C0998BAD237CC98A163A2EB48DF32628586551F52E9AEF6C16FC20F58EE57B0FCE4583D45D691BE64C50B1D2E9AEF6C16FC20F5AF96F106830530BAD237CC98A16187D58EE57B0FCE459AF96F1068305307B247AC91E8FAB1DCAF61F9C8B
1004
35F2DE20D060A62C865C5473C2B39CE775BE0843F4AB6DDA575540F5F4AB6DDA02AA81E845CE775BB407BB5FFFFF8FF2C8C385E11CA9E5FF7F45E8D8F92F816043E057337DDDEFFB2593298133777BFEC964CA604CC5D691BE64C50B1D175A46F993142C32A8FA974D77B60B7E107AC772BD87E722C1EA2E
1004
B48DF3262858E974D77B60B7E107AD7CB78834182985D691BE64C50B0C3EAC772BD87E722CD7CB78834182983D923D648F47D58EE57B0FCE459AF96F1068305316436AA8E78555503D2AB9CEEB7695D5112A920BFA55B6ED015540F422E73BADDA033792F816043E0573611CA9E5FF7F45E8D9607BBBA731
1004
2629216FBBBDFF64B26530266EEF7FD92C994C0998BAD237CC98A163A2EB48DF32628586551F52E9AEF6C16FC20F58EE57B0FCE4583D45D691BE64C50B1D2E9AEF6C16FC20F5AF96F106830530BAD237CC98A16187D58EE57B0FCE459AF96F1068305307B247AC91E8FAB1DCAF61F9C8B35F2DE20D060A62
1004
C866ED473C28E39CEC134B9A2D39AB6DDA02AA8167D2ADB7680AAA07A11739DD6ED01F99BF07D1631762A21EE204F2FFBFA2F46C7C97C0B021F02BECDF777BFEC964CA604CDDDEFFB2593298133175A46F993142C745D691BE64C50B0CAA3EA5D35DED82DF841EB1DCAF61F9C8B07A8BAD237CC98A163A5D
1004
35DED82DF841EB5F2DE20D060A6175A46F993142C30FAB1DCAF61F9C8B35F2DE20D060A60F648F5923D1F563B95EC3F39166BE5BC41A0C14C09107BE417E599D8567EED8B3812FFEC1BFCFE1B27017E599D8567EEC580BF2CCEC2B3F4DC7F87BFF97F89D7819380BF2CCEC2B3F4C7C955293A1B1F51F656A
1004
4AA9555502CAAAAAAAAAAAAAA914A6AEAA816555562DC8F1670D7D48D5554B8B2422D3AECF1FD76C908B4EBB3EFF135555555555552554AAAA81E97EADB7695D56DBB4AFD9CE775BB4AFD9CE775BB4055502CFE81893370CCA2305E2DC8F1670D7D48CF8CA72FABE5DBD3642E2C908B4EBB3C7F5DB2422D3
1004
AECFBFC4D555555555540B16430F51CF0AAAA07A5FAB6DDA5755B6ED2BF6739DD6ED2BF6739DD6ED015540B1F4A6499B86651182F9191E2CE1AFA91B89CC9DD77FBFE18A721BE6ED54BB3376AA5D9BC94737985EBADB7928E6F30BD758D5555547D5E4A39BCC2F5D6DBC94737985EBAC61ECAD5C209CE3EA
1004
F251CDE617AEB6DE4A39BCC2F5D632C866FA8E78555502CF6739DD6ED01558F4ADD21FA55B6ED015540F422E73BADDA03FC022D3AECF1FD764A25FC59C35F52315D74F8F4785DB5B16DF64845A75D9F7F89B2422D3AECFBFC4D9D98356D55504BACECC1AB6AAA824CAAAA1EACECC1AB6AAA825D55523818E
1004
E57B0FCE4599D98356D55504987D55548E063B95EC3F39160F656ACAD47D55548E063B95EC3F39162C865C5473C2B39CE775BE0843F4AB6DDA575540F5F4AB6DDA02AA81E845CE775BB4073E99BB8A88295298BC06478B386BEA46C908B4EBB3C7F5337D921169D767DFE26C908B4EBB3EFF1367660D5B55
1004
5412EB3B306ADAAAA0932AAA87AB3B306ADAAAA09755548E063B95EC3F391667660D5B55541261F555523818EE57B0FCE4583D95AB2B51F555523818EE57B0FCE458B21B55473C2AAA81E955CE775BB4AEA88954905FD2ADB7680AAA07A11739DD6ED01981169D7678FEA6C06478B386BEA46FFDFEB8BD75
1004
862FFA042DF64845A75D9F7F89B2422D3AECFBFC4D9D98356D55504BACECC1AB6AAA824CAAAA1EACECC1AB6AAA825D55523818EE57B0FCE4599D98356D55504987D55548E063B95EC3F39160F656ACAD47D55548E063B95EC3F39162C866ED473C28E39CEC134B9A2D39AB6DDA02AA8167D2ADB7680AAA07
1004
A11739DD6ED01AD870B4BF13C8814852897F1670D7D48D921169D7678FEBB37D921169D767DFE26C908B4EBB3EFF1367660D5B555412EB3B306ADAAAA0932AAA87AB3B306ADAAAA09755548E063B95EC3F391667660D5B55541261F555523818EE57B0FCE4583D95AB2B51F555523818EE57B0FCE459F9E1
1004
A47DB48B9C00CCDD94FFE0A48A7E149A1BBBEDA45CE00666ED9FEDA45CE006669B372814B9B56149A1BBBEDA45CE006669BC94737985EBADB7928E6F30BD758C3C73C343130DA8F8F92859E0D22A78DA8792859E0D22A78D9CE738FA8E78555503D2FD5B6ED2BAADB7695FB39CEEB7695FB39CEEB7680AAA
1004
059A7FF0CB220F7A682ECA0527C7A70A4D0D876198F159020BEDE437DA2F6D227253199A6D17B69139298CCD37928E6F30BD75B6F251CDE617AEB1BF3C35E39C4E7CBBDBDD91877F0E1AFA918EE950F977B7FDD2A1F2ECD80C87E727C35F5231DD2A1F2ECDE4A39BCC2F5D6DBC94737985EBAC61E39E12C0
1004
DA8F8F92859E0D49D0DA87A4E86C942CF068FA9CE738E78555503D2FD5B6ED2BAADB7695FB39CEEB7695FB39CEEB7680AAA058D81893370CCA230592E478B386BEA46DF29CBEAF976F4D90DF376AA5D99BB552ECDE4A39BCC2F5D6DBC94737985EBAC6FCF0D1D0F34ABCEDBDBDBFB308C5E89FC33FF89951
1004
0F34ABCEDBDBD9650F34ABCEDBDB36BE118BF806E7FF132A21E69579DB7B66F251CDE617AEB6DE4A39BCC2F5D630F1CF026FA8D8F8F8F9153C6DE62236A1E454F1B79888D8FA8FA8E78555503D2FD5B6ED2BAADB7695FB39CEEB7695FB39CEEB7680AAA059948A3F3FCC8953F88B5DE1188F1514B3FF8983
1004
8240E25847D0EF21BE2DFEFCD7EFA0DBDB316FF7E6BF7D06DED9BC94737985EBADB7928E6F30BD758DF9E1BFFC5EEDFD5237E36C52EB0EC48B0F83B37097BB7F548DF8DB672F76FEA91BF18DE5D1FFF4B0F83B37097BB7F548DF8C6F251CDE617AEB6DE4A39BCC2F5D630F1CF0CA6E414A3E3E3EF3111B49
1004
D0DA87BCC446D274363EA3EA39E155540F4BF56DBB4AEAB6DDA57ECE73BADDA57ECE73BADDA02AA816373D0F2CA93AA9D8BF5E9F9FCD61F07665CE2D6E7FAFF452D26437C8CBDD863D6FC63232F7618F5BF18DE4A39BCC2F5D6DBC94737985EBAC6E039FF891
1005
F9
  0
INSERT
  8
AME_FRZ
  5
F9
  2
AME_NIL
 10
1.0
 20
1.0
 30
1.0
1001
AME_SOL
1004

1005
0
  0
POLYLINE
  8
BASELINES
  5
142
 66
     1
 10
0.0
 20
0.0
 30
0.0
  0
VERTEX
  8
BASELINES
  5
143
 10
42.0
 20
94.421831
 30
0.0
 42
0.060706
  0
VERTEX
  8
BASELINES
  5
144
 10
55.544727
 20
89.393398
 30
0.0
 42
0.033939
 70
     2
 50
346.580656
  0
VERTEX
  8
BASELINES
  5
145
 10
74.108849
 20
86.276269
 30
0.0
 42
0.024632
 50
346.580656
  0
VERTEX
  8
BASELINES
  5
147
 10
100.0
 20
85.0
 30
0.0
 42
0.024632
  0
VERTEX
  8
BASELINES
  5
148
 10
125.891151
 20
86.276269
 30
0.0
 42
0.033096
  0
VERTEX
  8
BASELINES
  5
149
 10
144.0
 20
89.285585
 30
0.0
 42
0.07222
 70
     2
 50
13.419344
  0
SEQEND
  8
BASELINES
  5
14A
  0
POLYLINE
  8
SURFACE
 62
   254
  5
14B
 66
     1
 10
0.0
 20
0.0
 30
0.0
 70
    17
 71
    20
 72
    31
  0
VERTEX
  8
SURFACE
 62
   254
  5
14C
 10
44.0
 20
-10.714415
 30
0.0
 70
    64
  0
VERTEX
  8
SURFACE
 62
   254
  5
14D
 10
41.011967
 20
-11.382012
 30
0.0
 70
    64
  0
VERTEX
  8
SURFACE
 62
   254
  5
14E
 10
38.009938
 20
-11.98355
 30
0.0
 70
    64
  0
VERTEX
  8
SURFACE
 62
   254
  5
14F
 10
34.995373
 20
-12.518734
 30
0.0
 70
    64
  0
VERTEX
  8
SURFACE
 62
   254
  5
150
 10
31.969738
 20
-12.987306
 30
0.0
 70
    64
  0
VERTEX
  8
SURFACE
 62
   254
  5
151
 10
28.934505
 20
-13.389037
 30
0.0
 70
    64
  0
VERTEX
  8
SURFACE
 62
   254
  5
152
 10
25.891151
 20
-13.723731
 30
0.0
 70
    64
  0
VERTEX
  8
SURFACE
 62
   254
  5
153
 10
21.58663
 20
-14.113483
 30
0.0
 70
    64
  0
VERTEX
  8
SURFACE
 62
   254
  5
154
 10
17.27629
 20
-14.432515
 30
0.0
 70
    64
  0
VERTEX
  8
SURFACE
 62
   254
  5
155
 10
12.961294
 20
-14.680739
 30
0.0
 70
    64
  0
VERTEX
  8
SURFACE
 62
   254
  5
156
 10
8.642804
 20
-14.85809
 30
0.0
 70
    64
  0
VERTEX
  8
SURFACE
 62
   254
  5
157
 10
4.321984
 20
-14.96452
 30
0.0
 70
    64
  0
VERTEX
  8
SURFACE
 62
   254
  5
158
 10
0.0
 20
-15.0
 30
0.0
 70
    64
  0
VERTEX
  8
SURFACE
 62
   254
  5
159
 10
-4.321984
 20
-14.96452
 30
0.0
 70
    64
  0
VERTEX
  8
SURFACE
 62
   254
  5
15A
 10
-8.642804
 20
-14.85809
 30
0.0
 70
    64
  0
VERTEX
  8
SURFACE
 62
   254
  5
15B
 10
-12.961294
 20
-14.680739
 30
0.0
 70
    64
  0
VERTEX
  8
SURFACE
 62
   254
  5
15C
 10
-17.27629
 20
-14.432515
 30
0.0
 70
    64
  0
VERTEX
  8
SURFACE
 62
   254
  5
15D
 10
-21.58663
 20
-14.113483
 30
0.0
 70
    64
  0
VERTEX
  8
SURFACE
 62
   254
  5
15E
 10
-25.891151
 20
-13.723731
 30
0.0
 70
    64
  0
VERTEX
  8
SURFACE
 62
   254
  5
15F
 10
-29.011914
 20
-13.379637
 30
0.0
 70
    64
  0
VERTEX
  8
SURFACE
 62
   254
  5
160
 10
-32.124097
 20
-12.965053
 30
0.0
 70
    64
  0
VERTEX
  8
SURFACE
 62
   254
  5
161
 10
-35.226108
 20
-12.480191
 30
0.0
 70
    64
  0
VERTEX
  8
SURFACE
 62
   254
  5
162
 10
-38.316361
 20
-11.9253
 30
0.0
 70
    64
  0
VERTEX
  8
SURFACE
 62
   254
  5
163
 10
-41.393274
 20
-11.300664
 30
0.0
 70
    64
  0
VERTEX
  8
SURFACE
 62
   254
  5
164
 10
-44.455273
 20
-10.606602
 30
0.0
 70
    64
  0
VERTEX
  8
SURFACE
 62
   254
  5
165
 10
-46.79132
 20
-9.999094
 30
0.0
 70
    64
  0
VERTEX
  8
SURFACE
 62
   254
  5
166
 10
-49.100908
 20
-9.297682
 30
0.0
 70
    64
  0
VERTEX
  8
SURFACE
 62
   254
  5
167
 10
-51.380266
 20
-8.503512
 30
0.0
 70
    64
  0
VERTEX
  8
SURFACE
 62
   254
  5
168
 10
-53.625669
 20
-7.61788
 30
0.0
 70
    64
  0
VERTEX
  8
SURFACE
 62
   254
  5
169
 10
-55.833449
 20
-6.642235
 30
0.0
 70
    64
  0
VERTEX
  8
SURFACE
 62
   254
  5
16A
 10
-58.0
 20
-5.578169
 30
0.0
 70
    64
  0
VERTEX
  8
SURFACE
 62
   254
  5
16B
 10
44.0
 20
-10.190014
 30
-3.310936
 70
    64
  0
VERTEX
  8
SURFACE
 62
   254
  5
16C
 10
41.011967
 20
-10.824937
 30
-3.517235
 70
    64
  0
VERTEX
  8
SURFACE
 62
   254
  5
16D
 10
38.009938
 20
-11.397033
 30
-3.703121
 70
    64
  0
VERTEX
  8
SURFACE
 62
   254
  5
16E
 10
34.995373
 20
-11.906024
 30
-3.868502
 70
    64
  0
VERTEX
  8
SURFACE
 62
   254
  5
16F
 10
31.969738
 20
-12.351662
 30
-4.013298
 70
    64
  0
VERTEX
  8
SURFACE
 62
   254
  5
170
 10
28.934505
 20
-12.733731
 30
-4.13744
 70
    64
  0
VERTEX
  8
SURFACE
 62
   254
  5
171
 10
25.891151
 20
-13.052044
 30
-4.240866
 70
    64
  0
VERTEX
  8
SURFACE
 62
   254
  5
172
 10
21.58663
 20
-13.42272
 30
-4.361306
 70
    64
  0
VERTEX
  8
SURFACE
 62
   254
  5
173
 10
17.27629
 20
-13.726137
 30
-4.459892
 70
    64
  0
VERTEX
  8
SURFACE
 62
   254
  5
174
 10
12.961294
 20
-13.962213
 30
-4.536598
 70
    64
  0
VERTEX
  8
SURFACE
 62
   254
  5
175
 10
8.642804
 20
-14.130884
 30
-4.591402
 70
    64
  0
VERTEX
  8
SURFACE
 62
   254
  5
176
 10
4.321984
 20
-14.232104
 30
-4.624291
 70
    64
  0
VERTEX
  8
SURFACE
 62
   254
  5
177
 10
0.0
 20
-14.265848
 30
-4.635255
 70
    64
  0
VERTEX
  8
SURFACE
 62
   254
  5
178
 10
-4.321984
 20
-14.232104
 30
-4.624291
 70
    64
  0
VERTEX
  8
SURFACE
 62
   254
  5
179
 10
-8.642804
 20
-14.130884
 30
-4.591402
 70
    64
  0
VERTEX
  8
SURFACE
 62
   254
  5
17A
 10
-12.961294
 20
-13.962213
 30
-4.536598
 70
    64
  0
VERTEX
  8
SURFACE
 62
   254
  5
17B
 10
-17.27629
 20
-13.726137
 30
-4.459892
 70
    64
  0
VERTEX
  8
SURFACE
 62
   254
  5
17C
 10
-21.58663
 20
-13.42272
 30
-4.361306
 70
    64
  0
VERTEX
  8
SURFACE
 62
   254
  5
17D
 10
-25.891151
 20
-13.052044
 30
-4.240866
 70
    64
  0
VERTEX
  8
SURFACE
 62
   254
  5
17E
 10
-29.011914
 20
-12.724791
 30
-4.134535
 70
    64
  0
VERTEX
  8
SURFACE
 62
   254
  5
17F
 10
-32.124097
 20
-12.330498
 30
-4.006422
 70
    64
  0
VERTEX
  8
SURFACE
 62
   254
  5
180
 10
-35.226108
 20
-11.869367
 30
-3.856591
 70
    64
  0
VERTEX
  8
SURFACE
 62
   254
  5
181
 10
-38.316361
 20
-11.341635
 30
-3.68512
 70
    64
  0
VERTEX
  8
SURFACE
 62
   254
  5
182
 10
-41.393274
 20
-10.74757
 30
-3.492097
 70
    64
  0
VERTEX
  8
SURFACE
 62
   254
  5
183
 10
-44.455273
 20
-10.087478
 30
-3.27762
 70
    64
  0
VERTEX
  8
SURFACE
 62
   254
  5
184
 10
-46.79132
 20
-9.509704
 30
-3.08989
 70
    64
  0
VERTEX
  8
SURFACE
 62
   254
  5
185
 10
-49.100908
 20
-8.842621
 30
-2.873142
 70
    64
  0
VERTEX
  8
SURFACE
 62
   254
  5
186
 10
-51.380266
 20
-8.08732
 30
-2.62773
 70
    64
  0
VERTEX
  8
SURFACE
 62
   254
  5
187
 10
-53.625669
 20
-7.245035
 30
-2.354055
 70
    64
  0
VERTEX
  8
SURFACE
 62
   254
  5
188
 10
-55.833449
 20
-6.317141
 30
-2.052563
 70
    64
  0
VERTEX
  8
SURFACE
 62
   254
  5
189
 10
-58.0
 20
-5.305154
 30
-1.723749
 70
    64
  0
VERTEX
  8
SURFACE
 62
   254
  5
18A
 10
44.0
 20
-8.668144
 30
-6.297775
 70
    64
  0
VERTEX
  8
SURFACE
 62
   254
  5
18B
 10
41.011967
 20
-9.208241
 30
-6.690179
 70
    64
  0
VERTEX
  8
SURFACE
 62
   254
  5
18C
 10
38.009938
 20
-9.694895
 30
-7.043754
 70
    64
  0
VERTEX
  8
SURFACE
 62
   254
  5
18D
 10
34.995373
 20
-10.127869
 30
-7.358327
 70
    64
  0
VERTEX
  8
SURFACE
 62
   254
  5
18E
 10
31.969738
 20
-10.506951
 30
-7.633747
 70
    64
  0
VERTEX
  8
SURFACE
 62
   254
  5
18F
 10
28.934505
 20
-10.831958
 30
-7.869878
 70
    64
  0
VERTEX
  8
SURFACE
 62
   254
  5
190
 10
25.891151
 20
-11.102732
 30
-8.066607
 70
    64
  0
VERTEX
  8
SURFACE
 62
   254
  5
191
 10
21.58663
 20
-11.418048
 30
-8.295697
 70
    64
  0
VERTEX
  8
SURFACE
 62
   254
  5
192
 10
17.27629
 20
-11.67615
 30
-8.483219
 70
    64
  0
VERTEX
  8
SURFACE
 62
   254
  5
193
 10
12.961294
 20
-11.876968
 30
-8.629122
 70
    64
  0
VERTEX
  8
SURFACE
 62
   254
  5
194
 10
8.642804
 20
-12.020448
 30
-8.733366
 70
    64
  0
VERTEX
  8
SURFACE
 62
   254
  5
195
 10
4.321984
 20
-12.106551
 30
-8.795924
 70
    64
  0
VERTEX
  8
SURFACE
 62
   254
  5
196
 10
0.0
 20
-12.135255
 30
-8.816779
 70
    64
  0
VERTEX
  8
SURFACE
 62
   254
  5
197
 10
-4.321984
 20
-12.106551
 30
-8.795924
 70
    64
  0
VERTEX
  8
SURFACE
 62
   254
  5
198
 10
-8.642804
 20
-12.020448
 30
-8.733366
 70
    64
  0
VERTEX
  8
SURFACE
 62
   254
  5
199
 10
-12.961294
 20
-11.876968
 30
-8.629122
 70
    64
  0
VERTEX
  8
SURFACE
 62
   254
  5
19A
 10
-17.27629
 20
-11.67615
 30
-8.483219
 70
    64
  0
VERTEX
  8
SURFACE
 62
   254
  5
19B
 10
-21.58663
 20
-11.418048
 30
-8.295697
 70
    64
  0
VERTEX
  8
SURFACE
 62
   254
  5
19C
 10
-25.891151
 20
-11.102732
 30
-8.066607
 70
    64
  0
VERTEX
  8
SURFACE
 62
   254
  5
19D
 10
-29.011914
 20
-10.824353
 30
-7.864353
 70
    64
  0
VERTEX
  8
SURFACE
 62
   254
  5
19E
 10
-32.124097
 20
-10.488948
 30
-7.620667
 70
    64
  0
VERTEX
  8
SURFACE
 62
   254
  5
19F
 10
-35.226108
 20
-10.096687
 30
-7.335672
 70
    64
  0
VERTEX
  8
SURFACE
 62
   254
  5
1A0
 10
-38.316361
 20
-9.647771
 30
-7.009516
 70
    64
  0
VERTEX
  8
SURFACE
 62
   254
  5
1A1
 10
-41.393274
 20
-9.142429
 30
-6.642364
 70
    64
  0
VERTEX
  8
SURFACE
 62
   254
  5
1A2
 10
-44.455273
 20
-8.580921
 30
-6.234404
 70
    64
  0
VERTEX
  8
SURFACE
 62
   254
  5
1A3
 10
-46.79132
 20
-8.089437
 30
-5.87732
 70
    64
  0
VERTEX
  8
SURFACE
 62
   254
  5
1A4
 10
-49.100908
 20
-7.521983
 30
-5.46504
 70
    64
  0
VERTEX
  8
SURFACE
 62
   254
  5
1A5
 10
-51.380266
 20
-6.879486
 30
-4.998239
 70
    64
  0
VERTEX
  8
SURFACE
 62
   254
  5
1A6
 10
-53.625669
 20
-6.162995
 30
-4.477678
 70
    64
  0
VERTEX
  8
SURFACE
 62
   254
  5
1A7
 10
-55.833449
 20
-5.373681
 30
-3.904208
 70
    64
  0
VERTEX
  8
SURFACE
 62
   254
  5
1A8
 10
-58.0
 20
-4.512834
 30
-3.278766
 70
    64
  0
VERTEX
  8
SURFACE
 62
   254
  5
1A9
 10
44.0
 20
-6.297775
 30
-8.668144
 70
    64
  0
VERTEX
  8
SURFACE
 62
   254
  5
1AA
 10
41.011967
 20
-6.690179
 30
-9.208241
 70
    64
  0
VERTEX
  8
SURFACE
 62
   254
  5
1AB
 10
38.009938
 20
-7.043754
 30
-9.694895
 70
    64
  0
VERTEX
  8
SURFACE
 62
   254
  5
1AC
 10
34.995373
 20
-7.358327
 30
-10.127869
 70
    64
  0
VERTEX
  8
SURFACE
 62
   254
  5
1AD
 10
31.969738
 20
-7.633747
 30
-10.506951
 70
    64
  0
VERTEX
  8
SURFACE
 62
   254
  5
1AE
 10
28.934505
 20
-7.869878
 30
-10.831958
 70
    64
  0
VERTEX
  8
SURFACE
 62
   254
  5
1AF
 10
25.891151
 20
-8.066607
 30
-11.102732
 70
    64
  0
VERTEX
  8
SURFACE
 62
   254
  5
1B0
 10
21.58663
 20
-8.295697
 30
-11.418048
 70
    64
  0
VERTEX
  8
SURFACE
 62
   254
  5
1B1
 10
17.27629
 20
-8.483219
 30
-11.67615
 70
    64
  0
VERTEX
  8
SURFACE
 62
   254
  5
1B2
 10
12.961294
 20
-8.629122
 30
-11.876968
 70
    64
  0
VERTEX
  8
SURFACE
 62
   254
  5
1B3
 10
8.642804
 20
-8.733366
 30
-12.020448
 70
    64
  0
VERTEX
  8
SURFACE
 62
   254
  5
1B4
 10
4.321984
 20
-8.795924
 30
-12.106551
 70
    64
  0
VERTEX
  8
SURFACE
 62
   254
  5
1B5
 10
0.0
 20
-8.816779
 30
-12.135255
 70
    64
  0
VERTEX
  8
SURFACE
 62
   254
  5
1B6
 10
-4.321984
 20
-8.795924
 30
-12.106551
 70
    64
  0
VERTEX
  8
SURFACE
 62
   254
  5
1B7
 10
-8.642804
 20
-8.733366
 30
-12.020448
 70
    64
  0
VERTEX
  8
SURFACE
 62
   254
  5
1B8
 10
-12.961294
 20
-8.629122
 30
-11.876968
 70
    64
  0
VERTEX
  8
SURFACE
 62
   254
  5
1B9
 10
-17.27629
 20
-8.483219
 30
-11.67615
 70
    64
  0
VERTEX
  8
SURFACE
 62
   254
  5
1BA
 10
-21.58663
 20
-8.295697
 30
-11.418048
 70
    64
  0
VERTEX
  8
SURFACE
 62
   254
  5
1BB
 10
-25.891151
 20
-8.066607
 30
-11.102732
 70
    64
  0
VERTEX
  8
SURFACE
 62
   254
  5
1BC
 10
-29.011914
 20
-7.864353
 30
-10.824353
 70
    64
  0
VERTEX
  8
SURFACE
 62
   254
  5
1BD
 10
-32.124097
 20
-7.620667
 30
-10.488948
 70
    64
  0
VERTEX
  8
SURFACE
 62
   254
  5
1BE
 10
-35.226108
 20
-7.335672
 30
-10.096687
 70
    64
  0
VERTEX
  8
SURFACE
 62
   254
  5
1BF
 10
-38.316361
 20
-7.009516
 30
-9.647771
 70
    64
  0
VERTEX
  8
SURFACE
 62
   254
  5
1C0
 10
-41.393274
 20
-6.642364
 30
-9.142429
 70
    64
  0
VERTEX
  8
SURFACE
 62
   254
  5
1C1
 10
-44.455273
 20
-6.234404
 30
-8.580921
 70
    64
  0
VERTEX
  8
SURFACE
 62
   254
  5
1C2
 10
-46.79132
 20
-5.87732
 30
-8.089437
 70
    64
  0
VERTEX
  8
SURFACE
 62
   254
  5
1C3
 10
-49.100908
 20
-5.46504
 30
-7.521983
 70
    64
  0
VERTEX
  8
SURFACE
 62
   254
  5
1C4
 10
-51.380266
 20
-4.998239
 30
-6.879486
 70
    64
  0
VERTEX
  8
SURFACE
 62
   254
  5
1C5
 10
-53.625669
 20
-4.477678
 30
-6.162995
 70
    64
  0
VERTEX
  8
SURFACE
 62
   254
  5
1C6
 10
-55.833449
 20
-3.904208
 30
-5.373681
 70
    64
  0
VERTEX
  8
SURFACE
 62
   254
  5
1C7
 10
-58.0
 20
-3.278766
 30
-4.512834
 70
    64
  0
VERTEX
  8
SURFACE
 62
   254
  5
1C8
 10
44.0
 20
-3.310936
 30
-10.190014
 70
    64
  0
VERTEX
  8
SURFACE
 62
   254
  5
1C9
 10
41.011967
 20
-3.517235
 30
-10.824937
 70
    64
  0
VERTEX
  8
SURFACE
 62
   254
  5
1CA
 10
38.009938
 20
-3.703121
 30
-11.397033
 70
    64
  0
VERTEX
  8
SURFACE
 62
   254
  5
1CB
 10
34.995373
 20
-3.868502
 30
-11.906024
 70
    64
  0
VERTEX
  8
SURFACE
 62
   254
  5
1CC
 10
31.969738
 20
-4.013298
 30
-12.351662
 70
    64
  0
VERTEX
  8
SURFACE
 62
   254
  5
1CD
 10
28.934505
 20
-4.13744
 30
-12.733731
 70
    64
  0
VERTEX
  8
SURFACE
 62
   254
  5
1CE
 10
25.891151
 20
-4.240866
 30
-13.052044
 70
    64
  0
VERTEX
  8
SURFACE
 62
   254
  5
1CF
 10
21.58663
 20
-4.361306
 30
-13.42272
 70
    64
  0
VERTEX
  8
SURFACE
 62
   254
  5
1D0
 10
17.27629
 20
-4.459892
 30
-13.726137
 70
    64
  0
VERTEX
  8
SURFACE
 62
   254
  5
1D1
 10
12.961294
 20
-4.536598
 30
-13.962213
 70
    64
  0
VERTEX
  8
SURFACE
 62
   254
  5
1D2
 10
8.642804
 20
-4.591402
 30
-14.130884
 70
    64
  0
VERTEX
  8
SURFACE
 62
   254
  5
1D3
 10
4.321984
 20
-4.624291
 30
-14.232104
 70
    64
  0
VERTEX
  8
SURFACE
 62
   254
  5
1D4
 10
0.0
 20
-4.635255
 30
-14.265848
 70
    64
  0
VERTEX
  8
SURFACE
 62
   254
  5
1D5
 10
-4.321984
 20
-4.624291
 30
-14.232104
 70
    64
  0
VERTEX
  8
SURFACE
 62
   254
  5
1D6
 10
-8.642804
 20
-4.591402
 30
-14.130884
 70
    64
  0
VERTEX
  8
SURFACE
 62
   254
  5
1D7
 10
-12.961294
 20
-4.536598
 30
-13.962213
 70
    64
  0
VERTEX
  8
SURFACE
 62
   254
  5
1D8
 10
-17.27629
 20
-4.459892
 30
-13.726137
 70
    64
  0
VERTEX
  8
SURFACE
 62
   254
  5
1D9
 10
-21.58663
 20
-4.361306
 30
-13.42272
 70
    64
  0
VERTEX
  8
SURFACE
 62
   254
  5
1DA
 10
-25.891151
 20
-4.240866
 30
-13.052044
 70
    64
  0
VERTEX
  8
SURFACE
 62
   254
  5
1DB
 10
-29.011914
 20
-4.134535
 30
-12.724791
 70
    64
  0
VERTEX
  8
SURFACE
 62
   254
  5
1DC
 10
-32.124097
 20
-4.006422
 30
-12.330498
 70
    64
  0
VERTEX
  8
SURFACE
 62
   254
  5
1DD
 10
-35.226108
 20
-3.856591
 30
-11.869367
 70
    64
  0
VERTEX
  8
SURFACE
 62
   254
  5
1DE
 10
-38.316361
 20
-3.68512
 30
-11.341635
 70
    64
  0
VERTEX
  8
SURFACE
 62
   254
  5
1DF
 10
-41.393274
 20
-3.492097
 30
-10.74757
 70
    64
  0
VERTEX
  8
SURFACE
 62
   254
  5
1E0
 10
-44.455273
 20
-3.27762
 30
-10.087478
 70
    64
  0
VERTEX
  8
SURFACE
 62
   254
  5
1E1
 10
-46.79132
 20
-3.08989
 30
-9.509704
 70
    64
  0
VERTEX
  8
SURFACE
 62
   254
  5
1E2
 10
-49.100908
 20
-2.873142
 30
-8.842621
 70
    64
  0
VERTEX
  8
SURFACE
 62
   254
  5
1E3
 10
-51.380266
 20
-2.62773
 30
-8.08732
 70
    64
  0
VERTEX
  8
SURFACE
 62
   254
  5
1E4
 10
-53.625669
 20
-2.354055
 30
-7.245035
 70
    64
  0
VERTEX
  8
SURFACE
 62
   254
  5
1E5
 10
-55.833449
 20
-2.052563
 30
-6.317141
 70
    64
  0
VERTEX
  8
SURFACE
 62
   254
  5
1E6
 10
-58.0
 20
-1.723749
 30
-5.305154
 70
    64
  0
VERTEX
  8
SURFACE
 62
   254
  5
1E7
 10
44.0
 20
0.0
 30
-10.714415
 70
    64
  0
VERTEX
  8
SURFACE
 62
   254
  5
1E8
 10
41.011967
 20
0.0
 30
-11.382012
 70
    64
  0
VERTEX
  8
SURFACE
 62
   254
  5
1E9
 10
38.009938
 20
0.0
 30
-11.98355
 70
    64
  0
VERTEX
  8
SURFACE
 62
   254
  5
1EA
 10
34.995373
 20
0.0
 30
-12.518734
 70
    64
  0
VERTEX
  8
SURFACE
 62
   254
  5
1EB
 10
31.969738
 20
0.0
 30
-12.987306
 70
    64
  0
VERTEX
  8
SURFACE
 62
   254
  5
1EC
 10
28.934505
 20
0.0
 30
-13.389037
 70
    64
  0
VERTEX
  8
SURFACE
 62
   254
  5
1ED
 10
25.891151
 20
0.0
 30
-13.723731
 70
    64
  0
VERTEX
  8
SURFACE
 62
   254
  5
1EE
 10
21.58663
 20
0.0
 30
-14.113483
 70
    64
  0
VERTEX
  8
SURFACE
 62
   254
  5
1EF
 10
17.27629
 20
0.0
 30
-14.432515
 70
    64
  0
VERTEX
  8
SURFACE
 62
   254
  5
1F0
 10
12.961294
 20
0.0
 30
-14.680739
 70
    64
  0
VERTEX
  8
SURFACE
 62
   254
  5
1F1
 10
8.642804
 20
0.0
 30
-14.85809
 70
    64
  0
VERTEX
  8
SURFACE
 62
   254
  5
1F2
 10
4.321984
 20
0.0
 30
-14.96452
 70
    64
  0
VERTEX
  8
SURFACE
 62
   254
  5
1F3
 10
0.0
 20
0.0
 30
-15.0
 70
    64
  0
VERTEX
  8
SURFACE
 62
   254
  5
1F4
 10
-4.321984
 20
0.0
 30
-14.96452
 70
    64
  0
VERTEX
  8
SURFACE
 62
   254
  5
1F5
 10
-8.642804
 20
0.0
 30
-14.85809
 70
    64
  0
VERTEX
  8
SURFACE
 62
   254
  5
1F6
 10
-12.961294
 20
0.0
 30
-14.680739
 70
    64
  0
VERTEX
  8
SURFACE
 62
   254
  5
1F7
 10
-17.27629
 20
0.0
 30
-14.432515
 70
    64
  0
VERTEX
  8
SURFACE
 62
   254
  5
1F8
 10
-21.58663
 20
0.0
 30
-14.113483
 70
    64
  0
VERTEX
  8
SURFACE
 62
   254
  5
1F9
 10
-25.891151
 20
0.0
 30
-13.723731
 70
    64
  0
VERTEX
  8
SURFACE
 62
   254
  5
1FA
 10
-29.011914
 20
0.0
 30
-13.379637
 70
    64
  0
VERTEX
  8
SURFACE
 62
   254
  5
1FB
 10
-32.124097
 20
0.0
 30
-12.965053
 70
    64
  0
VERTEX
  8
SURFACE
 62
   254
  5
1FC
 10
-35.226108
 20
0.0
 30
-12.480191
 70
    64
  0
VERTEX
  8
SURFACE
 62
   254
  5
1FD
 10
-38.316361
 20
0.0
 30
-11.9253
 70
    64
  0
VERTEX
  8
SURFACE
 62
   254
  5
1FE
 10
-41.393274
 20
0.0
 30
-11.300664
 70
    64
  0
VERTEX
  8
SURFACE
 62
   254
  5
1FF
 10
-44.455273
 20
0.0
 30
-10.606602
 70
    64
  0
VERTEX
  8
SURFACE
 62
   254
  5
200
 10
-46.79132
 20
0.0
 30
-9.999094
 70
    64
  0
VERTEX
  8
SURFACE
 62
   254
  5
201
 10
-49.100908
 20
0.0
 30
-9.297682
 70
    64
  0
VERTEX
  8
SURFACE
 62
   254
  5
202
 10
-51.380266
 20
0.0
 30
-8.503512
 70
    64
  0
VERTEX
  8
SURFACE
 62
   254
  5
203
 10
-53.625669
 20
0.0
 30
-7.61788
 70
    64
  0
VERTEX
  8
SURFACE
 62
   254
  5
204
 10
-55.833449
 20
0.0
 30
-6.642235
 70
    64
  0
VERTEX
  8
SURFACE
 62
   254
  5
205
 10
-58.0
 20
0.0
 30
-5.578169
 70
    64
  0
VERTEX
  8
SURFACE
 62
   254
  5
206
 10
44.0
 20
3.310936
 30
-10.190014
 70
    64
  0
VERTEX
  8
SURFACE
 62
   254
  5
207
 10
41.011967
 20
3.517235
 30
-10.824937
 70
    64
  0
VERTEX
  8
SURFACE
 62
   254
  5
208
 10
38.009938
 20
3.703121
 30
-11.397033
 70
    64
  0
VERTEX
  8
SURFACE
 62
   254
  5
209
 10
34.995373
 20
3.868502
 30
-11.906024
 70
    64
  0
VERTEX
  8
SURFACE
 62
   254
  5
20A
 10
31.969738
 20
4.013298
 30
-12.351662
 70
    64
  0
VERTEX
  8
SURFACE
 62
   254
  5
20B
 10
28.934505
 20
4.13744
 30
-12.733731
 70
    64
  0
VERTEX
  8
SURFACE
 62
   254
  5
20C
 10
25.891151
 20
4.240866
 30
-13.052044
 70
    64
  0
VERTEX
  8
SURFACE
 62
   254
  5
20D
 10
21.58663
 20
4.361306
 30
-13.42272
 70
    64
  0
VERTEX
  8
SURFACE
 62
   254
  5
20E
 10
17.27629
 20
4.459892
 30
-13.726137
 70
    64
  0
VERTEX
  8
SURFACE
 62
   254
  5
20F
 10
12.961294
 20
4.536598
 30
-13.962213
 70
    64
  0
VERTEX
  8
SURFACE
 62
   254
  5
210
 10
8.642804
 20
4.591402
 30
-14.130884
 70
    64
  0
VERTEX
  8
SURFACE
 62
   254
  5
211
 10
4.321984
 20
4.624291
 30
-14.232104
 70
    64
  0
VERTEX
  8
SURFACE
 62
   254
  5
212
 10
0.0
 20
4.635255
 30
-14.265848
 70
    64
  0
VERTEX
  8
SURFACE
 62
   254
  5
213
 10
-4.321984
 20
4.624291
 30
-14.232104
 70
    64
  0
VERTEX
  8
SURFACE
 62
   254
  5
214
 10
-8.642804
 20
4.591402
 30
-14.130884
 70
    64
  0
VERTEX
  8
SURFACE
 62
   254
  5
215
 10
-12.961294
 20
4.536598
 30
-13.962213
 70
    64
  0
VERTEX
  8
SURFACE
 62
   254
  5
216
 10
-17.27629
 20
4.459892
 30
-13.726137
 70
    64
  0
VERTEX
  8
SURFACE
 62
   254
  5
217
 10
-21.58663
 20
4.361306
 30
-13.42272
 70
    64
  0
VERTEX
  8
SURFACE
 62
   254
  5
218
 10
-25.891151
 20
4.240866
 30
-13.052044
 70
    64
  0
VERTEX
  8
SURFACE
 62
   254
  5
219
 10
-29.011914
 20
4.134535
 30
-12.724791
 70
    64
  0
VERTEX
  8
SURFACE
 62
   254
  5
21A
 10
-32.124097
 20
4.006422
 30
-12.330498
 70
    64
  0
VERTEX
  8
SURFACE
 62
   254
  5
21B
 10
-35.226108
 20
3.856591
 30
-11.869367
 70
    64
  0
VERTEX
  8
SURFACE
 62
   254
  5
21C
 10
-38.316361
 20
3.68512
 30
-11.341635
 70
    64
  0
VERTEX
  8
SURFACE
 62
   254
  5
21D
 10
-41.393274
 20
3.492097
 30
-10.74757
 70
    64
  0
VERTEX
  8
SURFACE
 62
   254
  5
21E
 10
-44.455273
 20
3.27762
 30
-10.087478
 70
    64
  0
VERTEX
  8
SURFACE
 62
   254
  5
21F
 10
-46.79132
 20
3.08989
 30
-9.509704
 70
    64
  0
VERTEX
  8
SURFACE
 62
   254
  5
220
 10
-49.100908
 20
2.873142
 30
-8.842621
 70
    64
  0
VERTEX
  8
SURFACE
 62
   254
  5
221
 10
-51.380266
 20
2.62773
 30
-8.08732
 70
    64
  0
VERTEX
  8
SURFACE
 62
   254
  5
222
 10
-53.625669
 20
2.354055
 30
-7.245035
 70
    64
  0
VERTEX
  8
SURFACE
 62
   254
  5
223
 10
-55.833449
 20
2.052563
 30
-6.317141
 70
    64
  0
VERTEX
  8
SURFACE
 62
   254
  5
224
 10
-58.0
 20
1.723749
 30
-5.305154
 70
    64
  0
VERTEX
  8
SURFACE
 62
   254
  5
225
 10
44.0
 20
6.297775
 30
-8.668144
 70
    64
  0
VERTEX
  8
SURFACE
 62
   254
  5
226
 10
41.011967
 20
6.690179
 30
-9.208241
 70
    64
  0
VERTEX
  8
SURFACE
 62
   254
  5
227
 10
38.009938
 20
7.043754
 30
-9.694895
 70
    64
  0
VERTEX
  8
SURFACE
 62
   254
  5
228
 10
34.995373
 20
7.358327
 30
-10.127869
 70
    64
  0
VERTEX
  8
SURFACE
 62
   254
  5
229
 10
31.969738
 20
7.633747
 30
-10.506951
 70
    64
  0
VERTEX
  8
SURFACE
 62
   254
  5
22A
 10
28.934505
 20
7.869878
 30
-10.831958
 70
    64
  0
VERTEX
  8
SURFACE
 62
   254
  5
22B
 10
25.891151
 20
8.066607
 30
-11.102732
 70
    64
  0
VERTEX
  8
SURFACE
 62
   254
  5
22C
 10
21.58663
 20
8.295697
 30
-11.418048
 70
    64
  0
VERTEX
  8
SURFACE
 62
   254
  5
22D
 10
17.27629
 20
8.483219
 30
-11.67615
 70
    64
  0
VERTEX
  8
SURFACE
 62
   254
  5
22E
 10
12.961294
 20
8.629122
 30
-11.876968
 70
    64
  0
VERTEX
  8
SURFACE
 62
   254
  5
22F
 10
8.642804
 20
8.733366
 30
-12.020448
 70
    64
  0
VERTEX
  8
SURFACE
 62
   254
  5
230
 10
4.321984
 20
8.795924
 30
-12.106551
 70
    64
  0
VERTEX
  8
SURFACE
 62
   254
  5
231
 10
0.0
 20
8.816779
 30
-12.135255
 70
    64
  0
VERTEX
  8
SURFACE
 62
   254
  5
232
 10
-4.321984
 20
8.795924
 30
-12.106551
 70
    64
  0
VERTEX
  8
SURFACE
 62
   254
  5
233
 10
-8.642804
 20
8.733366
 30
-12.020448
 70
    64
  0
VERTEX
  8
SURFACE
 62
   254
  5
234
 10
-12.961294
 20
8.629122
 30
-11.876968
 70
    64
  0
VERTEX
  8
SURFACE
 62
   254
  5
235
 10
-17.27629
 20
8.483219
 30
-11.67615
 70
    64
  0
VERTEX
  8
SURFACE
 62
   254
  5
236
 10
-21.58663
 20
8.295697
 30
-11.418048
 70
    64
  0
VERTEX
  8
SURFACE
 62
   254
  5
237
 10
-25.891151
 20
8.066607
 30
-11.102732
 70
    64
  0
VERTEX
  8
SURFACE
 62
   254
  5
238
 10
-29.011914
 20
7.864353
 30
-10.824353
 70
    64
  0
VERTEX
  8
SURFACE
 62
   254
  5
239
 10
-32.124097
 20
7.620667
 30
-10.488948
 70
    64
  0
VERTEX
  8
SURFACE
 62
   254
  5
23A
 10
-35.226108
 20
7.335672
 30
-10.096687
 70
    64
  0
VERTEX
  8
SURFACE
 62
   254
  5
23B
 10
-38.316361
 20
7.009516
 30
-9.647771
 70
    64
  0
VERTEX
  8
SURFACE
 62
   254
  5
23C
 10
-41.393274
 20
6.642364
 30
-9.142429
 70
    64
  0
VERTEX
  8
SURFACE
 62
   254
  5
23D
 10
-44.455273
 20
6.234404
 30
-8.580921
 70
    64
  0
VERTEX
  8
SURFACE
 62
   254
  5
23E
 10
-46.79132
 20
5.87732
 30
-8.089437
 70
    64
  0
VERTEX
  8
SURFACE
 62
   254
  5
23F
 10
-49.100908
 20
5.46504
 30
-7.521983
 70
    64
  0
VERTEX
  8
SURFACE
 62
   254
  5
240
 10
-51.380266
 20
4.998239
 30
-6.879486
 70
    64
  0
VERTEX
  8
SURFACE
 62
   254
  5
241
 10
-53.625669
 20
4.477678
 30
-6.162995
 70
    64
  0
VERTEX
  8
SURFACE
 62
   254
  5
242
 10
-55.833449
 20
3.904208
 30
-5.373681
 70
    64
  0
VERTEX
  8
SURFACE
 62
   254
  5
243
 10
-58.0
 20
3.278766
 30
-4.512834
 70
    64
  0
VERTEX
  8
SURFACE
 62
   254
  5
244
 10
44.0
 20
8.668144
 30
-6.297775
 70
    64
  0
VERTEX
  8
SURFACE
 62
   254
  5
245
 10
41.011967
 20
9.208241
 30
-6.690179
 70
    64
  0
VERTEX
  8
SURFACE
 62
   254
  5
246
 10
38.009938
 20
9.694895
 30
-7.043754
 70
    64
  0
VERTEX
  8
SURFACE
 62
   254
  5
247
 10
34.995373
 20
10.127869
 30
-7.358327
 70
    64
  0
VERTEX
  8
SURFACE
 62
   254
  5
248
 10
31.969738
 20
10.506951
 30
-7.633747
 70
    64
  0
VERTEX
  8
SURFACE
 62
   254
  5
249
 10
28.934505
 20
10.831958
 30
-7.869878
 70
    64
  0
VERTEX
  8
SURFACE
 62
   254
  5
24A
 10
25.891151
 20
11.102732
 30
-8.066607
 70
    64
  0
VERTEX
  8
SURFACE
 62
   254
  5
24B
 10
21.58663
 20
11.418048
 30
-8.295697
 70
    64
  0
VERTEX
  8
SURFACE
 62
   254
  5
24C
 10
17.27629
 20
11.67615
 30
-8.483219
 70
    64
  0
VERTEX
  8
SURFACE
 62
   254
  5
24D
 10
12.961294
 20
11.876968
 30
-8.629122
 70
    64
  0
VERTEX
  8
SURFACE
 62
   254
  5
24E
 10
8.642804
 20
12.020448
 30
-8.733366
 70
    64
  0
VERTEX
  8
SURFACE
 62
   254
  5
24F
 10
4.321984
 20
12.106551
 30
-8.795924
 70
    64
  0
VERTEX
  8
SURFACE
 62
   254
  5
250
 10
0.0
 20
12.135255
 30
-8.816779
 70
    64
  0
VERTEX
  8
SURFACE
 62
   254
  5
251
 10
-4.321984
 20
12.106551
 30
-8.795924
 70
    64
  0
VERTEX
  8
SURFACE
 62
   254
  5
252
 10
-8.642804
 20
12.020448
 30
-8.733366
 70
    64
  0
VERTEX
  8
SURFACE
 62
   254
  5
253
 10
-12.961294
 20
11.876968
 30
-8.629122
 70
    64
  0
VERTEX
  8
SURFACE
 62
   254
  5
254
 10
-17.27629
 20
11.67615
 30
-8.483219
 70
    64
  0
VERTEX
  8
SURFACE
 62
   254
  5
255
 10
-21.58663
 20
11.418048
 30
-8.295697
 70
    64
  0
VERTEX
  8
SURFACE
 62
   254
  5
256
 10
-25.891151
 20
11.102732
 30
-8.066607
 70
    64
  0
VERTEX
  8
SURFACE
 62
   254
  5
257
 10
-29.011914
 20
10.824353
 30
-7.864353
 70
    64
  0
VERTEX
  8
SURFACE
 62
   254
  5
258
 10
-32.124097
 20
10.488948
 30
-7.620667
 70
    64
  0
VERTEX
  8
SURFACE
 62
   254
  5
259
 10
-35.226108
 20
10.096687
 30
-7.335672
 70
    64
  0
VERTEX
  8
SURFACE
 62
   254
  5
25A
 10
-38.316361
 20
9.647771
 30
-7.009516
 70
    64
  0
VERTEX
  8
SURFACE
 62
   254
  5
25B
 10
-41.393274
 20
9.142429
 30
-6.642364
 70
    64
  0
VERTEX
  8
SURFACE
 62
   254
  5
25C
 10
-44.455273
 20
8.580921
 30
-6.234404
 70
    64
  0
VERTEX
  8
SURFACE
 62
   254
  5
25D
 10
-46.79132
 20
8.089437
 30
-5.87732
 70
    64
  0
VERTEX
  8
SURFACE
 62
   254
  5
25E
 10
-49.100908
 20
7.521983
 30
-5.46504
 70
    64
  0
VERTEX
  8
SURFACE
 62
   254
  5
25F
 10
-51.380266
 20
6.879486
 30
-4.998239
 70
    64
  0
VERTEX
  8
SURFACE
 62
   254
  5
260
 10
-53.625669
 20
6.162995
 30
-4.477678
 70
    64
  0
VERTEX
  8
SURFACE
 62
   254
  5
261
 10
-55.833449
 20
5.373681
 30
-3.904208
 70
    64
  0
VERTEX
  8
SURFACE
 62
   254
  5
262
 10
-58.0
 20
4.512834
 30
-3.278766
 70
    64
  0
VERTEX
  8
SURFACE
 62
   254
  5
263
 10
44.0
 20
10.190014
 30
-3.310936
 70
    64
  0
VERTEX
  8
SURFACE
 62
   254
  5
264
 10
41.011967
 20
10.824937
 30
-3.517235
 70
    64
  0
VERTEX
  8
SURFACE
 62
   254
  5
265
 10
38.009938
 20
11.397033
 30
-3.703121
 70
    64
  0
VERTEX
  8
SURFACE
 62
   254
  5
266
 10
34.995373
 20
11.906024
 30
-3.868502
 70
    64
  0
VERTEX
  8
SURFACE
 62
   254
  5
267
 10
31.969738
 20
12.351662
 30
-4.013298
 70
    64
  0
VERTEX
  8
SURFACE
 62
   254
  5
268
 10
28.934505
 20
12.733731
 30
-4.13744
 70
    64
  0
VERTEX
  8
SURFACE
 62
   254
  5
269
 10
25.891151
 20
13.052044
 30
-4.240866
 70
    64
  0
VERTEX
  8
SURFACE
 62
   254
  5
26A
 10
21.58663
 20
13.42272
 30
-4.361306
 70
    64
  0
VERTEX
  8
SURFACE
 62
   254
  5
26B
 10
17.27629
 20
13.726137
 30
-4.459892
 70
    64
  0
VERTEX
  8
SURFACE
 62
   254
  5
26C
 10
12.961294
 20
13.962213
 30
-4.536598
 70
    64
  0
VERTEX
  8
SURFACE
 62
   254
  5
26D
 10
8.642804
 20
14.130884
 30
-4.591402
 70
    64
  0
VERTEX
  8
SURFACE
 62
   254
  5
26E
 10
4.321984
 20
14.232104
 30
-4.624291
 70
    64
  0
VERTEX
  8
SURFACE
 62
   254
  5
26F
 10
0.0
 20
14.265848
 30
-4.635255
 70
    64
  0
VERTEX
  8
SURFACE
 62
   254
  5
270
 10
-4.321984
 20
14.232104
 30
-4.624291
 70
    64
  0
VERTEX
  8
SURFACE
 62
   254
  5
271
 10
-8.642804
 20
14.130884
 30
-4.591402
 70
    64
  0
VERTEX
  8
SURFACE
 62
   254
  5
272
 10
-12.961294
 20
13.962213
 30
-4.536598
 70
    64
  0
VERTEX
  8
SURFACE
 62
   254
  5
273
 10
-17.27629
 20
13.726137
 30
-4.459892
 70
    64
  0
VERTEX
  8
SURFACE
 62
   254
  5
274
 10
-21.58663
 20
13.42272
 30
-4.361306
 70
    64
  0
VERTEX
  8
SURFACE
 62
   254
  5
275
 10
-25.891151
 20
13.052044
 30
-4.240866
 70
    64
  0
VERTEX
  8
SURFACE
 62
   254
  5
276
 10
-29.011914
 20
12.724791
 30
-4.134535
 70
    64
  0
VERTEX
  8
SURFACE
 62
   254
  5
277
 10
-32.124097
 20
12.330498
 30
-4.006422
 70
    64
  0
VERTEX
  8
SURFACE
 62
   254
  5
278
 10
-35.226108
 20
11.869367
 30
-3.856591
 70
    64
  0
VERTEX
  8
SURFACE
 62
   254
  5
279
 10
-38.316361
 20
11.341635
 30
-3.68512
 70
    64
  0
VERTEX
  8
SURFACE
 62
   254
  5
27A
 10
-41.393274
 20
10.74757
 30
-3.492097
 70
    64
  0
VERTEX
  8
SURFACE
 62
   254
  5
27B
 10
-44.455273
 20
10.087478
 30
-3.27762
 70
    64
  0
VERTEX
  8
SURFACE
 62
   254
  5
27C
 10
-46.79132
 20
9.509704
 30
-3.08989
 70
    64
  0
VERTEX
  8
SURFACE
 62
   254
  5
27D
 10
-49.100908
 20
8.842621
 30
-2.873142
 70
    64
  0
VERTEX
  8
SURFACE
 62
   254
  5
27E
 10
-51.380266
 20
8.08732
 30
-2.62773
 70
    64
  0
VERTEX
  8
SURFACE
 62
   254
  5
27F
 10
-53.625669
 20
7.245035
 30
-2.354055
 70
    64
  0
VERTEX
  8
SURFACE
 62
   254
  5
280
 10
-55.833449
 20
6.317141
 30
-2.052563
 70
    64
  0
VERTEX
  8
SURFACE
 62
   254
  5
281
 10
-58.0
 20
5.305154
 30
-1.723749
 70
    64
  0
VERTEX
  8
SURFACE
 62
   254
  5
282
 10
44.0
 20
10.714415
 30
0.0
 70
    64
  0
VERTEX
  8
SURFACE
 62
   254
  5
283
 10
41.011967
 20
11.382012
 30
0.0
 70
    64
  0
VERTEX
  8
SURFACE
 62
   254
  5
284
 10
38.009938
 20
11.98355
 30
0.0
 70
    64
  0
VERTEX
  8
SURFACE
 62
   254
  5
285
 10
34.995373
 20
12.518734
 30
0.0
 70
    64
  0
VERTEX
  8
SURFACE
 62
   254
  5
286
 10
31.969738
 20
12.987306
 30
0.0
 70
    64
  0
VERTEX
  8
SURFACE
 62
   254
  5
287
 10
28.934505
 20
13.389037
 30
0.0
 70
    64
  0
VERTEX
  8
SURFACE
 62
   254
  5
288
 10
25.891151
 20
13.723731
 30
0.0
 70
    64
  0
VERTEX
  8
SURFACE
 62
   254
  5
289
 10
21.58663
 20
14.113483
 30
0.0
 70
    64
  0
VERTEX
  8
SURFACE
 62
   254
  5
28A
 10
17.27629
 20
14.432515
 30
0.0
 70
    64
  0
VERTEX
  8
SURFACE
 62
   254
  5
28B
 10
12.961294
 20
14.680739
 30
0.0
 70
    64
  0
VERTEX
  8
SURFACE
 62
   254
  5
28C
 10
8.642804
 20
14.85809
 30
0.0
 70
    64
  0
VERTEX
  8
SURFACE
 62
   254
  5
28D
 10
4.321984
 20
14.96452
 30
0.0
 70
    64
  0
VERTEX
  8
SURFACE
 62
   254
  5
28E
 10
0.0
 20
15.0
 30
0.0
 70
    64
  0
VERTEX
  8
SURFACE
 62
   254
  5
28F
 10
-4.321984
 20
14.96452
 30
0.0
 70
    64
  0
VERTEX
  8
SURFACE
 62
   254
  5
290
 10
-8.642804
 20
14.85809
 30
0.0
 70
    64
  0
VERTEX
  8
SURFACE
 62
   254
  5
291
 10
-12.961294
 20
14.680739
 30
0.0
 70
    64
  0
VERTEX
  8
SURFACE
 62
   254
  5
292
 10
-17.27629
 20
14.432515
 30
0.0
 70
    64
  0
VERTEX
  8
SURFACE
 62
   254
  5
293
 10
-21.58663
 20
14.113483
 30
0.0
 70
    64
  0
VERTEX
  8
SURFACE
 62
   254
  5
294
 10
-25.891151
 20
13.723731
 30
0.0
 70
    64
  0
VERTEX
  8
SURFACE
 62
   254
  5
295
 10
-29.011914
 20
13.379637
 30
0.0
 70
    64
  0
VERTEX
  8
SURFACE
 62
   254
  5
296
 10
-32.124097
 20
12.965053
 30
0.0
 70
    64
  0
VERTEX
  8
SURFACE
 62
   254
  5
297
 10
-35.226108
 20
12.480191
 30
0.0
 70
    64
  0
VERTEX
  8
SURFACE
 62
   254
  5
298
 10
-38.316361
 20
11.9253
 30
0.0
 70
    64
  0
VERTEX
  8
SURFACE
 62
   254
  5
299
 10
-41.393274
 20
11.300664
 30
0.0
 70
    64
  0
VERTEX
  8
SURFACE
 62
   254
  5
29A
 10
-44.455273
 20
10.606602
 30
0.0
 70
    64
  0
VERTEX
  8
SURFACE
 62
   254
  5
29B
 10
-46.79132
 20
9.999094
 30
0.0
 70
    64
  0
VERTEX
  8
SURFACE
 62
   254
  5
29C
 10
-49.100908
 20
9.297682
 30
0.0
 70
    64
  0
VERTEX
  8
SURFACE
 62
   254
  5
29D
 10
-51.380266
 20
8.503512
 30
0.0
 70
    64
  0
VERTEX
  8
SURFACE
 62
   254
  5
29E
 10
-53.625669
 20
7.61788
 30
0.0
 70
    64
  0
VERTEX
  8
SURFACE
 62
   254
  5
29F
 10
-55.833449
 20
6.642235
 30
0.0
 70
    64
  0
VERTEX
  8
SURFACE
 62
   254
  5
2A0
 10
-58.0
 20
5.578169
 30
0.0
 70
    64
  0
VERTEX
  8
SURFACE
 62
   254
  5
2A1
 10
44.0
 20
10.190014
 30
3.310936
 70
    64
  0
VERTEX
  8
SURFACE
 62
   254
  5
2A2
 10
41.011967
 20
10.824937
 30
3.517235
 70
    64
  0
VERTEX
  8
SURFACE
 62
   254
  5
2A3
 10
38.009938
 20
11.397033
 30
3.703121
 70
    64
  0
VERTEX
  8
SURFACE
 62
   254
  5
2A4
 10
34.995373
 20
11.906024
 30
3.868502
 70
    64
  0
VERTEX
  8
SURFACE
 62
   254
  5
2A5
 10
31.969738
 20
12.351662
 30
4.013298
 70
    64
  0
VERTEX
  8
SURFACE
 62
   254
  5
2A6
 10
28.934505
 20
12.733731
 30
4.13744
 70
    64
  0
VERTEX
  8
SURFACE
 62
   254
  5
2A7
 10
25.891151
 20
13.052044
 30
4.240866
 70
    64
  0
VERTEX
  8
SURFACE
 62
   254
  5
2A8
 10
21.58663
 20
13.42272
 30
4.361306
 70
    64
  0
VERTEX
  8
SURFACE
 62
   254
  5
2A9
 10
17.27629
 20
13.726137
 30
4.459892
 70
    64
  0
VERTEX
  8
SURFACE
 62
   254
  5
2AA
 10
12.961294
 20
13.962213
 30
4.536598
 70
    64
  0
VERTEX
  8
SURFACE
 62
   254
  5
2AB
 10
8.642804
 20
14.130884
 30
4.591402
 70
    64
  0
VERTEX
  8
SURFACE
 62
   254
  5
2AC
 10
4.321984
 20
14.232104
 30
4.624291
 70
    64
  0
VERTEX
  8
SURFACE
 62
   254
  5
2AD
 10
0.0
 20
14.265848
 30
4.635255
 70
    64
  0
VERTEX
  8
SURFACE
 62
   254
  5
2AE
 10
-4.321984
 20
14.232104
 30
4.624291
 70
    64
  0
VERTEX
  8
SURFACE
 62
   254
  5
2AF
 10
-8.642804
 20
14.130884
 30
4.591402
 70
    64
  0
VERTEX
  8
SURFACE
 62
   254
  5
2B0
 10
-12.961294
 20
13.962213
 30
4.536598
 70
    64
  0
VERTEX
  8
SURFACE
 62
   254
  5
2B1
 10
-17.27629
 20
13.726137
 30
4.459892
 70
    64
  0
VERTEX
  8
SURFACE
 62
   254
  5
2B2
 10
-21.58663
 20
13.42272
 30
4.361306
 70
    64
  0
VERTEX
  8
SURFACE
 62
   254
  5
2B3
 10
-25.891151
 20
13.052044
 30
4.240866
 70
    64
  0
VERTEX
  8
SURFACE
 62
   254
  5
2B4
 10
-29.011914
 20
12.724791
 30
4.134535
 70
    64
  0
VERTEX
  8
SURFACE
 62
   254
  5
2B5
 10
-32.124097
 20
12.330498
 30
4.006422
 70
    64
  0
VERTEX
  8
SURFACE
 62
   254
  5
2B6
 10
-35.226108
 20
11.869367
 30
3.856591
 70
    64
  0
VERTEX
  8
SURFACE
 62
   254
  5
2B7
 10
-38.316361
 20
11.341635
 30
3.68512
 70
    64
  0
VERTEX
  8
SURFACE
 62
   254
  5
2B8
 10
-41.393274
 20
10.74757
 30
3.492097
 70
    64
  0
VERTEX
  8
SURFACE
 62
   254
  5
2B9
 10
-44.455273
 20
10.087478
 30
3.27762
 70
    64
  0
VERTEX
  8
SURFACE
 62
   254
  5
2BA
 10
-46.79132
 20
9.509704
 30
3.08989
 70
    64
  0
VERTEX
  8
SURFACE
 62
   254
  5
2BB
 10
-49.100908
 20
8.842621
 30
2.873142
 70
    64
  0
VERTEX
  8
SURFACE
 62
   254
  5
2BC
 10
-51.380266
 20
8.08732
 30
2.62773
 70
    64
  0
VERTEX
  8
SURFACE
 62
   254
  5
2BD
 10
-53.625669
 20
7.245035
 30
2.354055
 70
    64
  0
VERTEX
  8
SURFACE
 62
   254
  5
2BE
 10
-55.833449
 20
6.317141
 30
2.052563
 70
    64
  0
VERTEX
  8
SURFACE
 62
   254
  5
2BF
 10
-58.0
 20
5.305154
 30
1.723749
 70
    64
  0
VERTEX
  8
SURFACE
 62
   254
  5
2C0
 10
44.0
 20
8.668144
 30
6.297775
 70
    64
  0
VERTEX
  8
SURFACE
 62
   254
  5
2C1
 10
41.011967
 20
9.208241
 30
6.690179
 70
    64
  0
VERTEX
  8
SURFACE
 62
   254
  5
2C2
 10
38.009938
 20
9.694895
 30
7.043754
 70
    64
  0
VERTEX
  8
SURFACE
 62
   254
  5
2C3
 10
34.995373
 20
10.127869
 30
7.358327
 70
    64
  0
VERTEX
  8
SURFACE
 62
   254
  5
2C4
 10
31.969738
 20
10.506951
 30
7.633747
 70
    64
  0
VERTEX
  8
SURFACE
 62
   254
  5
2C5
 10
28.934505
 20
10.831958
 30
7.869878
 70
    64
  0
VERTEX
  8
SURFACE
 62
   254
  5
2C6
 10
25.891151
 20
11.102732
 30
8.066607
 70
    64
  0
VERTEX
  8
SURFACE
 62
   254
  5
2C7
 10
21.58663
 20
11.418048
 30
8.295697
 70
    64
  0
VERTEX
  8
SURFACE
 62
   254
  5
2C8
 10
17.27629
 20
11.67615
 30
8.483219
 70
    64
  0
VERTEX
  8
SURFACE
 62
   254
  5
2C9
 10
12.961294
 20
11.876968
 30
8.629122
 70
    64
  0
VERTEX
  8
SURFACE
 62
   254
  5
2CA
 10
8.642804
 20
12.020448
 30
8.733366
 70
    64
  0
VERTEX
  8
SURFACE
 62
   254
  5
2CB
 10
4.321984
 20
12.106551
 30
8.795924
 70
    64
  0
VERTEX
  8
SURFACE
 62
   254
  5
2CC
 10
0.0
 20
12.135255
 30
8.816779
 70
    64
  0
VERTEX
  8
SURFACE
 62
   254
  5
2CD
 10
-4.321984
 20
12.106551
 30
8.795924
 70
    64
  0
VERTEX
  8
SURFACE
 62
   254
  5
2CE
 10
-8.642804
 20
12.020448
 30
8.733366
 70
    64
  0
VERTEX
  8
SURFACE
 62
   254
  5
2CF
 10
-12.961294
 20
11.876968
 30
8.629122
 70
    64
  0
VERTEX
  8
SURFACE
 62
   254
  5
2D0
 10
-17.27629
 20
11.67615
 30
8.483219
 70
    64
  0
VERTEX
  8
SURFACE
 62
   254
  5
2D1
 10
-21.58663
 20
11.418048
 30
8.295697
 70
    64
  0
VERTEX
  8
SURFACE
 62
   254
  5
2D2
 10
-25.891151
 20
11.102732
 30
8.066607
 70
    64
  0
VERTEX
  8
SURFACE
 62
   254
  5
2D3
 10
-29.011914
 20
10.824353
 30
7.864353
 70
    64
  0
VERTEX
  8
SURFACE
 62
   254
  5
2D4
 10
-32.124097
 20
10.488948
 30
7.620667
 70
    64
  0
VERTEX
  8
SURFACE
 62
   254
  5
2D5
 10
-35.226108
 20
10.096687
 30
7.335672
 70
    64
  0
VERTEX
  8
SURFACE
 62
   254
  5
2D6
 10
-38.316361
 20
9.647771
 30
7.009516
 70
    64
  0
VERTEX
  8
SURFACE
 62
   254
  5
2D7
 10
-41.393274
 20
9.142429
 30
6.642364
 70
    64
  0
VERTEX
  8
SURFACE
 62
   254
  5
2D8
 10
-44.455273
 20
8.580921
 30
6.234404
 70
    64
  0
VERTEX
  8
SURFACE
 62
   254
  5
2D9
 10
-46.79132
 20
8.089437
 30
5.87732
 70
    64
  0
VERTEX
  8
SURFACE
 62
   254
  5
2DA
 10
-49.100908
 20
7.521983
 30
5.46504
 70
    64
  0
VERTEX
  8
SURFACE
 62
   254
  5
2DB
 10
-51.380266
 20
6.879486
 30
4.998239
 70
    64
  0
VERTEX
  8
SURFACE
 62
   254
  5
2DC
 10
-53.625669
 20
6.162995
 30
4.477678
 70
    64
  0
VERTEX
  8
SURFACE
 62
   254
  5
2DD
 10
-55.833449
 20
5.373681
 30
3.904208
 70
    64
  0
VERTEX
  8
SURFACE
 62
   254
  5
2DE
 10
-58.0
 20
4.512834
 30
3.278766
 70
    64
  0
VERTEX
  8
SURFACE
 62
   254
  5
2DF
 10
44.0
 20
6.297775
 30
8.668144
 70
    64
  0
VERTEX
  8
SURFACE
 62
   254
  5
2E0
 10
41.011967
 20
6.690179
 30
9.208241
 70
    64
  0
VERTEX
  8
SURFACE
 62
   254
  5
2E1
 10
38.009938
 20
7.043754
 30
9.694895
 70
    64
  0
VERTEX
  8
SURFACE
 62
   254
  5
2E2
 10
34.995373
 20
7.358327
 30
10.127869
 70
    64
  0
VERTEX
  8
SURFACE
 62
   254
  5
2E3
 10
31.969738
 20
7.633747
 30
10.506951
 70
    64
  0
VERTEX
  8
SURFACE
 62
   254
  5
2E4
 10
28.934505
 20
7.869878
 30
10.831958
 70
    64
  0
VERTEX
  8
SURFACE
 62
   254
  5
2E5
 10
25.891151
 20
8.066607
 30
11.102732
 70
    64
  0
VERTEX
  8
SURFACE
 62
   254
  5
2E6
 10
21.58663
 20
8.295697
 30
11.418048
 70
    64
  0
VERTEX
  8
SURFACE
 62
   254
  5
2E7
 10
17.27629
 20
8.483219
 30
11.67615
 70
    64
  0
VERTEX
  8
SURFACE
 62
   254
  5
2E8
 10
12.961294
 20
8.629122
 30
11.876968
 70
    64
  0
VERTEX
  8
SURFACE
 62
   254
  5
2E9
 10
8.642804
 20
8.733366
 30
12.020448
 70
    64
  0
VERTEX
  8
SURFACE
 62
   254
  5
2EA
 10
4.321984
 20
8.795924
 30
12.106551
 70
    64
  0
VERTEX
  8
SURFACE
 62
   254
  5
2EB
 10
0.0
 20
8.816779
 30
12.135255
 70
    64
  0
VERTEX
  8
SURFACE
 62
   254
  5
2EC
 10
-4.321984
 20
8.795924
 30
12.106551
 70
    64
  0
VERTEX
  8
SURFACE
 62
   254
  5
2ED
 10
-8.642804
 20
8.733366
 30
12.020448
 70
    64
  0
VERTEX
  8
SURFACE
 62
   254
  5
2EE
 10
-12.961294
 20
8.629122
 30
11.876968
 70
    64
  0
VERTEX
  8
SURFACE
 62
   254
  5
2EF
 10
-17.27629
 20
8.483219
 30
11.67615
 70
    64
  0
VERTEX
  8
SURFACE
 62
   254
  5
2F0
 10
-21.58663
 20
8.295697
 30
11.418048
 70
    64
  0
VERTEX
  8
SURFACE
 62
   254
  5
2F1
 10
-25.891151
 20
8.066607
 30
11.102732
 70
    64
  0
VERTEX
  8
SURFACE
 62
   254
  5
2F2
 10
-29.011914
 20
7.864353
 30
10.824353
 70
    64
  0
VERTEX
  8
SURFACE
 62
   254
  5
2F3
 10
-32.124097
 20
7.620667
 30
10.488948
 70
    64
  0
VERTEX
  8
SURFACE
 62
   254
  5
2F4
 10
-35.226108
 20
7.335672
 30
10.096687
 70
    64
  0
VERTEX
  8
SURFACE
 62
   254
  5
2F5
 10
-38.316361
 20
7.009516
 30
9.647771
 70
    64
  0
VERTEX
  8
SURFACE
 62
   254
  5
2F6
 10
-41.393274
 20
6.642364
 30
9.142429
 70
    64
  0
VERTEX
  8
SURFACE
 62
   254
  5
2F7
 10
-44.455273
 20
6.234404
 30
8.580921
 70
    64
  0
VERTEX
  8
SURFACE
 62
   254
  5
2F8
 10
-46.79132
 20
5.87732
 30
8.089437
 70
    64
  0
VERTEX
  8
SURFACE
 62
   254
  5
2F9
 10
-49.100908
 20
5.46504
 30
7.521983
 70
    64
  0
VERTEX
  8
SURFACE
 62
   254
  5
2FA
 10
-51.380266
 20
4.998239
 30
6.879486
 70
    64
  0
VERTEX
  8
SURFACE
 62
   254
  5
2FB
 10
-53.625669
 20
4.477678
 30
6.162995
 70
    64
  0
VERTEX
  8
SURFACE
 62
   254
  5
2FC
 10
-55.833449
 20
3.904208
 30
5.373681
 70
    64
  0
VERTEX
  8
SURFACE
 62
   254
  5
2FD
 10
-58.0
 20
3.278766
 30
4.512834
 70
    64
  0
VERTEX
  8
SURFACE
 62
   254
  5
2FE
 10
44.0
 20
3.310936
 30
10.190014
 70
    64
  0
VERTEX
  8
SURFACE
 62
   254
  5
2FF
 10
41.011967
 20
3.517235
 30
10.824937
 70
    64
  0
VERTEX
  8
SURFACE
 62
   254
  5
300
 10
38.009938
 20
3.703121
 30
11.397033
 70
    64
  0
VERTEX
  8
SURFACE
 62
   254
  5
301
 10
34.995373
 20
3.868502
 30
11.906024
 70
    64
  0
VERTEX
  8
SURFACE
 62
   254
  5
302
 10
31.969738
 20
4.013298
 30
12.351662
 70
    64
  0
VERTEX
  8
SURFACE
 62
   254
  5
303
 10
28.934505
 20
4.13744
 30
12.733731
 70
    64
  0
VERTEX
  8
SURFACE
 62
   254
  5
304
 10
25.891151
 20
4.240866
 30
13.052044
 70
    64
  0
VERTEX
  8
SURFACE
 62
   254
  5
305
 10
21.58663
 20
4.361306
 30
13.42272
 70
    64
  0
VERTEX
  8
SURFACE
 62
   254
  5
306
 10
17.27629
 20
4.459892
 30
13.726137
 70
    64
  0
VERTEX
  8
SURFACE
 62
   254
  5
307
 10
12.961294
 20
4.536598
 30
13.962213
 70
    64
  0
VERTEX
  8
SURFACE
 62
   254
  5
308
 10
8.642804
 20
4.591402
 30
14.130884
 70
    64
  0
VERTEX
  8
SURFACE
 62
   254
  5
309
 10
4.321984
 20
4.624291
 30
14.232104
 70
    64
  0
VERTEX
  8
SURFACE
 62
   254
  5
30A
 10
0.0
 20
4.635255
 30
14.265848
 70
    64
  0
VERTEX
  8
SURFACE
 62
   254
  5
30B
 10
-4.321984
 20
4.624291
 30
14.232104
 70
    64
  0
VERTEX
  8
SURFACE
 62
   254
  5
30C
 10
-8.642804
 20
4.591402
 30
14.130884
 70
    64
  0
VERTEX
  8
SURFACE
 62
   254
  5
30D
 10
-12.961294
 20
4.536598
 30
13.962213
 70
    64
  0
VERTEX
  8
SURFACE
 62
   254
  5
30E
 10
-17.27629
 20
4.459892
 30
13.726137
 70
    64
  0
VERTEX
  8
SURFACE
 62
   254
  5
30F
 10
-21.58663
 20
4.361306
 30
13.42272
 70
    64
  0
VERTEX
  8
SURFACE
 62
   254
  5
310
 10
-25.891151
 20
4.240866
 30
13.052044
 70
    64
  0
VERTEX
  8
SURFACE
 62
   254
  5
311
 10
-29.011914
 20
4.134535
 30
12.724791
 70
    64
  0
VERTEX
  8
SURFACE
 62
   254
  5
312
 10
-32.124097
 20
4.006422
 30
12.330498
 70
    64
  0
VERTEX
  8
SURFACE
 62
   254
  5
313
 10
-35.226108
 20
3.856591
 30
11.869367
 70
    64
  0
VERTEX
  8
SURFACE
 62
   254
  5
314
 10
-38.316361
 20
3.68512
 30
11.341635
 70
    64
  0
VERTEX
  8
SURFACE
 62
   254
  5
315
 10
-41.393274
 20
3.492097
 30
10.74757
 70
    64
  0
VERTEX
  8
SURFACE
 62
   254
  5
316
 10
-44.455273
 20
3.27762
 30
10.087478
 70
    64
  0
VERTEX
  8
SURFACE
 62
   254
  5
317
 10
-46.79132
 20
3.08989
 30
9.509704
 70
    64
  0
VERTEX
  8
SURFACE
 62
   254
  5
318
 10
-49.100908
 20
2.873142
 30
8.842621
 70
    64
  0
VERTEX
  8
SURFACE
 62
   254
  5
319
 10
-51.380266
 20
2.62773
 30
8.08732
 70
    64
  0
VERTEX
  8
SURFACE
 62
   254
  5
31A
 10
-53.625669
 20
2.354055
 30
7.245035
 70
    64
  0
VERTEX
  8
SURFACE
 62
   254
  5
31B
 10
-55.833449
 20
2.052563
 30
6.317141
 70
    64
  0
VERTEX
  8
SURFACE
 62
   254
  5
31C
 10
-58.0
 20
1.723749
 30
5.305154
 70
    64
  0
VERTEX
  8
SURFACE
 62
   254
  5
31D
 10
44.0
 20
0.0
 30
10.714415
 70
    64
  0
VERTEX
  8
SURFACE
 62
   254
  5
31E
 10
41.011967
 20
0.0
 30
11.382012
 70
    64
  0
VERTEX
  8
SURFACE
 62
   254
  5
31F
 10
38.009938
 20
0.0
 30
11.98355
 70
    64
  0
VERTEX
  8
SURFACE
 62
   254
  5
320
 10
34.995373
 20
0.0
 30
12.518734
 70
    64
  0
VERTEX
  8
SURFACE
 62
   254
  5
321
 10
31.969738
 20
0.0
 30
12.987306
 70
    64
  0
VERTEX
  8
SURFACE
 62
   254
  5
322
 10
28.934505
 20
0.0
 30
13.389037
 70
    64
  0
VERTEX
  8
SURFACE
 62
   254
  5
323
 10
25.891151
 20
0.0
 30
13.723731
 70
    64
  0
VERTEX
  8
SURFACE
 62
   254
  5
324
 10
21.58663
 20
0.0
 30
14.113483
 70
    64
  0
VERTEX
  8
SURFACE
 62
   254
  5
325
 10
17.27629
 20
0.0
 30
14.432515
 70
    64
  0
VERTEX
  8
SURFACE
 62
   254
  5
326
 10
12.961294
 20
0.0
 30
14.680739
 70
    64
  0
VERTEX
  8
SURFACE
 62
   254
  5
327
 10
8.642804
 20
0.0
 30
14.85809
 70
    64
  0
VERTEX
  8
SURFACE
 62
   254
  5
328
 10
4.321984
 20
0.0
 30
14.96452
 70
    64
  0
VERTEX
  8
SURFACE
 62
   254
  5
329
 10
0.0
 20
0.0
 30
15.0
 70
    64
  0
VERTEX
  8
SURFACE
 62
   254
  5
32A
 10
-4.321984
 20
0.0
 30
14.96452
 70
    64
  0
VERTEX
  8
SURFACE
 62
   254
  5
32B
 10
-8.642804
 20
0.0
 30
14.85809
 70
    64
  0
VERTEX
  8
SURFACE
 62
   254
  5
32C
 10
-12.961294
 20
0.0
 30
14.680739
 70
    64
  0
VERTEX
  8
SURFACE
 62
   254
  5
32D
 10
-17.27629
 20
0.0
 30
14.432515
 70
    64
  0
VERTEX
  8
SURFACE
 62
   254
  5
32E
 10
-21.58663
 20
0.0
 30
14.113483
 70
    64
  0
VERTEX
  8
SURFACE
 62
   254
  5
32F
 10
-25.891151
 20
0.0
 30
13.723731
 70
    64
  0
VERTEX
  8
SURFACE
 62
   254
  5
330
 10
-29.011914
 20
0.0
 30
13.379637
 70
    64
  0
VERTEX
  8
SURFACE
 62
   254
  5
331
 10
-32.124097
 20
0.0
 30
12.965053
 70
    64
  0
VERTEX
  8
SURFACE
 62
   254
  5
332
 10
-35.226108
 20
0.0
 30
12.480191
 70
    64
  0
VERTEX
  8
SURFACE
 62
   254
  5
333
 10
-38.316361
 20
0.0
 30
11.9253
 70
    64
  0
VERTEX
  8
SURFACE
 62
   254
  5
334
 10
-41.393274
 20
0.0
 30
11.300664
 70
    64
  0
VERTEX
  8
SURFACE
 62
   254
  5
335
 10
-44.455273
 20
0.0
 30
10.606602
 70
    64
  0
VERTEX
  8
SURFACE
 62
   254
  5
336
 10
-46.79132
 20
0.0
 30
9.999094
 70
    64
  0
VERTEX
  8
SURFACE
 62
   254
  5
337
 10
-49.100908
 20
0.0
 30
9.297682
 70
    64
  0
VERTEX
  8
SURFACE
 62
   254
  5
338
 10
-51.380266
 20
0.0
 30
8.503512
 70
    64
  0
VERTEX
  8
SURFACE
 62
   254
  5
339
 10
-53.625669
 20
0.0
 30
7.61788
 70
    64
  0
VERTEX
  8
SURFACE
 62
   254
  5
33A
 10
-55.833449
 20
0.0
 30
6.642235
 70
    64
  0
VERTEX
  8
SURFACE
 62
   254
  5
33B
 10
-58.0
 20
0.0
 30
5.578169
 70
    64
  0
VERTEX
  8
SURFACE
 62
   254
  5
33C
 10
44.0
 20
-3.310936
 30
10.190014
 70
    64
  0
VERTEX
  8
SURFACE
 62
   254
  5
33D
 10
41.011967
 20
-3.517235
 30
10.824937
 70
    64
  0
VERTEX
  8
SURFACE
 62
   254
  5
33E
 10
38.009938
 20
-3.703121
 30
11.397033
 70
    64
  0
VERTEX
  8
SURFACE
 62
   254
  5
33F
 10
34.995373
 20
-3.868502
 30
11.906024
 70
    64
  0
VERTEX
  8
SURFACE
 62
   254
  5
340
 10
31.969738
 20
-4.013298
 30
12.351662
 70
    64
  0
VERTEX
  8
SURFACE
 62
   254
  5
341
 10
28.934505
 20
-4.13744
 30
12.733731
 70
    64
  0
VERTEX
  8
SURFACE
 62
   254
  5
342
 10
25.891151
 20
-4.240866
 30
13.052044
 70
    64
  0
VERTEX
  8
SURFACE
 62
   254
  5
343
 10
21.58663
 20
-4.361306
 30
13.42272
 70
    64
  0
VERTEX
  8
SURFACE
 62
   254
  5
344
 10
17.27629
 20
-4.459892
 30
13.726137
 70
    64
  0
VERTEX
  8
SURFACE
 62
   254
  5
345
 10
12.961294
 20
-4.536598
 30
13.962213
 70
    64
  0
VERTEX
  8
SURFACE
 62
   254
  5
346
 10
8.642804
 20
-4.591402
 30
14.130884
 70
    64
  0
VERTEX
  8
SURFACE
 62
   254
  5
347
 10
4.321984
 20
-4.624291
 30
14.232104
 70
    64
  0
VERTEX
  8
SURFACE
 62
   254
  5
348
 10
0.0
 20
-4.635255
 30
14.265848
 70
    64
  0
VERTEX
  8
SURFACE
 62
   254
  5
349
 10
-4.321984
 20
-4.624291
 30
14.232104
 70
    64
  0
VERTEX
  8
SURFACE
 62
   254
  5
34A
 10
-8.642804
 20
-4.591402
 30
14.130884
 70
    64
  0
VERTEX
  8
SURFACE
 62
   254
  5
34B
 10
-12.961294
 20
-4.536598
 30
13.962213
 70
    64
  0
VERTEX
  8
SURFACE
 62
   254
  5
34C
 10
-17.27629
 20
-4.459892
 30
13.726137
 70
    64
  0
VERTEX
  8
SURFACE
 62
   254
  5
34D
 10
-21.58663
 20
-4.361306
 30
13.42272
 70
    64
  0
VERTEX
  8
SURFACE
 62
   254
  5
34E
 10
-25.891151
 20
-4.240866
 30
13.052044
 70
    64
  0
VERTEX
  8
SURFACE
 62
   254
  5
34F
 10
-29.011914
 20
-4.134535
 30
12.724791
 70
    64
  0
VERTEX
  8
SURFACE
 62
   254
  5
350
 10
-32.124097
 20
-4.006422
 30
12.330498
 70
    64
  0
VERTEX
  8
SURFACE
 62
   254
  5
351
 10
-35.226108
 20
-3.856591
 30
11.869367
 70
    64
  0
VERTEX
  8
SURFACE
 62
   254
  5
352
 10
-38.316361
 20
-3.68512
 30
11.341635
 70
    64
  0
VERTEX
  8
SURFACE
 62
   254
  5
353
 10
-41.393274
 20
-3.492097
 30
10.74757
 70
    64
  0
VERTEX
  8
SURFACE
 62
   254
  5
354
 10
-44.455273
 20
-3.27762
 30
10.087478
 70
    64
  0
VERTEX
  8
SURFACE
 62
   254
  5
355
 10
-46.79132
 20
-3.08989
 30
9.509704
 70
    64
  0
VERTEX
  8
SURFACE
 62
   254
  5
356
 10
-49.100908
 20
-2.873142
 30
8.842621
 70
    64
  0
VERTEX
  8
SURFACE
 62
   254
  5
357
 10
-51.380266
 20
-2.62773
 30
8.08732
 70
    64
  0
VERTEX
  8
SURFACE
 62
   254
  5
358
 10
-53.625669
 20
-2.354055
 30
7.245035
 70
    64
  0
VERTEX
  8
SURFACE
 62
   254
  5
359
 10
-55.833449
 20
-2.052563
 30
6.317141
 70
    64
  0
VERTEX
  8
SURFACE
 62
   254
  5
35A
 10
-58.0
 20
-1.723749
 30
5.305154
 70
    64
  0
VERTEX
  8
SURFACE
 62
   254
  5
35B
 10
44.0
 20
-6.297775
 30
8.668144
 70
    64
  0
VERTEX
  8
SURFACE
 62
   254
  5
35C
 10
41.011967
 20
-6.690179
 30
9.208241
 70
    64
  0
VERTEX
  8
SURFACE
 62
   254
  5
35D
 10
38.009938
 20
-7.043754
 30
9.694895
 70
    64
  0
VERTEX
  8
SURFACE
 62
   254
  5
35E
 10
34.995373
 20
-7.358327
 30
10.127869
 70
    64
  0
VERTEX
  8
SURFACE
 62
   254
  5
35F
 10
31.969738
 20
-7.633747
 30
10.506951
 70
    64
  0
VERTEX
  8
SURFACE
 62
   254
  5
360
 10
28.934505
 20
-7.869878
 30
10.831958
 70
    64
  0
VERTEX
  8
SURFACE
 62
   254
  5
361
 10
25.891151
 20
-8.066607
 30
11.102732
 70
    64
  0
VERTEX
  8
SURFACE
 62
   254
  5
362
 10
21.58663
 20
-8.295697
 30
11.418048
 70
    64
  0
VERTEX
  8
SURFACE
 62
   254
  5
363
 10
17.27629
 20
-8.483219
 30
11.67615
 70
    64
  0
VERTEX
  8
SURFACE
 62
   254
  5
364
 10
12.961294
 20
-8.629122
 30
11.876968
 70
    64
  0
VERTEX
  8
SURFACE
 62
   254
  5
365
 10
8.642804
 20
-8.733366
 30
12.020448
 70
    64
  0
VERTEX
  8
SURFACE
 62
   254
  5
366
 10
4.321984
 20
-8.795924
 30
12.106551
 70
    64
  0
VERTEX
  8
SURFACE
 62
   254
  5
367
 10
0.0
 20
-8.816779
 30
12.135255
 70
    64
  0
VERTEX
  8
SURFACE
 62
   254
  5
368
 10
-4.321984
 20
-8.795924
 30
12.106551
 70
    64
  0
VERTEX
  8
SURFACE
 62
   254
  5
369
 10
-8.642804
 20
-8.733366
 30
12.020448
 70
    64
  0
VERTEX
  8
SURFACE
 62
   254
  5
36A
 10
-12.961294
 20
-8.629122
 30
11.876968
 70
    64
  0
VERTEX
  8
SURFACE
 62
   254
  5
36B
 10
-17.27629
 20
-8.483219
 30
11.67615
 70
    64
  0
VERTEX
  8
SURFACE
 62
   254
  5
36C
 10
-21.58663
 20
-8.295697
 30
11.418048
 70
    64
  0
VERTEX
  8
SURFACE
 62
   254
  5
36D
 10
-25.891151
 20
-8.066607
 30
11.102732
 70
    64
  0
VERTEX
  8
SURFACE
 62
   254
  5
36E
 10
-29.011914
 20
-7.864353
 30
10.824353
 70
    64
  0
VERTEX
  8
SURFACE
 62
   254
  5
36F
 10
-32.124097
 20
-7.620667
 30
10.488948
 70
    64
  0
VERTEX
  8
SURFACE
 62
   254
  5
370
 10
-35.226108
 20
-7.335672
 30
10.096687
 70
    64
  0
VERTEX
  8
SURFACE
 62
   254
  5
371
 10
-38.316361
 20
-7.009516
 30
9.647771
 70
    64
  0
VERTEX
  8
SURFACE
 62
   254
  5
372
 10
-41.393274
 20
-6.642364
 30
9.142429
 70
    64
  0
VERTEX
  8
SURFACE
 62
   254
  5
373
 10
-44.455273
 20
-6.234404
 30
8.580921
 70
    64
  0
VERTEX
  8
SURFACE
 62
   254
  5
374
 10
-46.79132
 20
-5.87732
 30
8.089437
 70
    64
  0
VERTEX
  8
SURFACE
 62
   254
  5
375
 10
-49.100908
 20
-5.46504
 30
7.521983
 70
    64
  0
VERTEX
  8
SURFACE
 62
   254
  5
376
 10
-51.380266
 20
-4.998239
 30
6.879486
 70
    64
  0
VERTEX
  8
SURFACE
 62
   254
  5
377
 10
-53.625669
 20
-4.477678
 30
6.162995
 70
    64
  0
VERTEX
  8
SURFACE
 62
   254
  5
378
 10
-55.833449
 20
-3.904208
 30
5.373681
 70
    64
  0
VERTEX
  8
SURFACE
 62
   254
  5
379
 10
-58.0
 20
-3.278766
 30
4.512834
 70
    64
  0
VERTEX
  8
SURFACE
 62
   254
  5
37A
 10
44.0
 20
-8.668144
 30
6.297775
 70
    64
  0
VERTEX
  8
SURFACE
 62
   254
  5
37B
 10
41.011967
 20
-9.208241
 30
6.690179
 70
    64
  0
VERTEX
  8
SURFACE
 62
   254
  5
37C
 10
38.009938
 20
-9.694895
 30
7.043754
 70
    64
  0
VERTEX
  8
SURFACE
 62
   254
  5
37D
 10
34.995373
 20
-10.127869
 30
7.358327
 70
    64
  0
VERTEX
  8
SURFACE
 62
   254
  5
37E
 10
31.969738
 20
-10.506951
 30
7.633747
 70
    64
  0
VERTEX
  8
SURFACE
 62
   254
  5
37F
 10
28.934505
 20
-10.831958
 30
7.869878
 70
    64
  0
VERTEX
  8
SURFACE
 62
   254
  5
380
 10
25.891151
 20
-11.102732
 30
8.066607
 70
    64
  0
VERTEX
  8
SURFACE
 62
   254
  5
381
 10
21.58663
 20
-11.418048
 30
8.295697
 70
    64
  0
VERTEX
  8
SURFACE
 62
   254
  5
382
 10
17.27629
 20
-11.67615
 30
8.483219
 70
    64
  0
VERTEX
  8
SURFACE
 62
   254
  5
383
 10
12.961294
 20
-11.876968
 30
8.629122
 70
    64
  0
VERTEX
  8
SURFACE
 62
   254
  5
384
 10
8.642804
 20
-12.020448
 30
8.733366
 70
    64
  0
VERTEX
  8
SURFACE
 62
   254
  5
385
 10
4.321984
 20
-12.106551
 30
8.795924
 70
    64
  0
VERTEX
  8
SURFACE
 62
   254
  5
386
 10
0.0
 20
-12.135255
 30
8.816779
 70
    64
  0
VERTEX
  8
SURFACE
 62
   254
  5
387
 10
-4.321984
 20
-12.106551
 30
8.795924
 70
    64
  0
VERTEX
  8
SURFACE
 62
   254
  5
388
 10
-8.642804
 20
-12.020448
 30
8.733366
 70
    64
  0
VERTEX
  8
SURFACE
 62
   254
  5
389
 10
-12.961294
 20
-11.876968
 30
8.629122
 70
    64
  0
VERTEX
  8
SURFACE
 62
   254
  5
38A
 10
-17.27629
 20
-11.67615
 30
8.483219
 70
    64
  0
VERTEX
  8
SURFACE
 62
   254
  5
38B
 10
-21.58663
 20
-11.418048
 30
8.295697
 70
    64
  0
VERTEX
  8
SURFACE
 62
   254
  5
38C
 10
-25.891151
 20
-11.102732
 30
8.066607
 70
    64
  0
VERTEX
  8
SURFACE
 62
   254
  5
38D
 10
-29.011914
 20
-10.824353
 30
7.864353
 70
    64
  0
VERTEX
  8
SURFACE
 62
   254
  5
38E
 10
-32.124097
 20
-10.488948
 30
7.620667
 70
    64
  0
VERTEX
  8
SURFACE
 62
   254
  5
38F
 10
-35.226108
 20
-10.096687
 30
7.335672
 70
    64
  0
VERTEX
  8
SURFACE
 62
   254
  5
390
 10
-38.316361
 20
-9.647771
 30
7.009516
 70
    64
  0
VERTEX
  8
SURFACE
 62
   254
  5
391
 10
-41.393274
 20
-9.142429
 30
6.642364
 70
    64
  0
VERTEX
  8
SURFACE
 62
   254
  5
392
 10
-44.455273
 20
-8.580921
 30
6.234404
 70
    64
  0
VERTEX
  8
SURFACE
 62
   254
  5
393
 10
-46.79132
 20
-8.089437
 30
5.87732
 70
    64
  0
VERTEX
  8
SURFACE
 62
   254
  5
394
 10
-49.100908
 20
-7.521983
 30
5.46504
 70
    64
  0
VERTEX
  8
SURFACE
 62
   254
  5
395
 10
-51.380266
 20
-6.879486
 30
4.998239
 70
    64
  0
VERTEX
  8
SURFACE
 62
   254
  5
396
 10
-53.625669
 20
-6.162995
 30
4.477678
 70
    64
  0
VERTEX
  8
SURFACE
 62
   254
  5
397
 10
-55.833449
 20
-5.373681
 30
3.904208
 70
    64
  0
VERTEX
  8
SURFACE
 62
   254
  5
398
 10
-58.0
 20
-4.512834
 30
3.278766
 70
    64
  0
VERTEX
  8
SURFACE
 62
   254
  5
399
 10
44.0
 20
-10.190014
 30
3.310936
 70
    64
  0
VERTEX
  8
SURFACE
 62
   254
  5
39A
 10
41.011967
 20
-10.824937
 30
3.517235
 70
    64
  0
VERTEX
  8
SURFACE
 62
   254
  5
39B
 10
38.009938
 20
-11.397033
 30
3.703121
 70
    64
  0
VERTEX
  8
SURFACE
 62
   254
  5
39C
 10
34.995373
 20
-11.906024
 30
3.868502
 70
    64
  0
VERTEX
  8
SURFACE
 62
   254
  5
39D
 10
31.969738
 20
-12.351662
 30
4.013298
 70
    64
  0
VERTEX
  8
SURFACE
 62
   254
  5
39E
 10
28.934505
 20
-12.733731
 30
4.13744
 70
    64
  0
VERTEX
  8
SURFACE
 62
   254
  5
39F
 10
25.891151
 20
-13.052044
 30
4.240866
 70
    64
  0
VERTEX
  8
SURFACE
 62
   254
  5
3A0
 10
21.58663
 20
-13.42272
 30
4.361306
 70
    64
  0
VERTEX
  8
SURFACE
 62
   254
  5
3A1
 10
17.27629
 20
-13.726137
 30
4.459892
 70
    64
  0
VERTEX
  8
SURFACE
 62
   254
  5
3A2
 10
12.961294
 20
-13.962213
 30
4.536598
 70
    64
  0
VERTEX
  8
SURFACE
 62
   254
  5
3A3
 10
8.642804
 20
-14.130884
 30
4.591402
 70
    64
  0
VERTEX
  8
SURFACE
 62
   254
  5
3A4
 10
4.321984
 20
-14.232104
 30
4.624291
 70
    64
  0
VERTEX
  8
SURFACE
 62
   254
  5
3A5
 10
0.0
 20
-14.265848
 30
4.635255
 70
    64
  0
VERTEX
  8
SURFACE
 62
   254
  5
3A6
 10
-4.321984
 20
-14.232104
 30
4.624291
 70
    64
  0
VERTEX
  8
SURFACE
 62
   254
  5
3A7
 10
-8.642804
 20
-14.130884
 30
4.591402
 70
    64
  0
VERTEX
  8
SURFACE
 62
   254
  5
3A8
 10
-12.961294
 20
-13.962213
 30
4.536598
 70
    64
  0
VERTEX
  8
SURFACE
 62
   254
  5
3A9
 10
-17.27629
 20
-13.726137
 30
4.459892
 70
    64
  0
VERTEX
  8
SURFACE
 62
   254
  5
3AA
 10
-21.58663
 20
-13.42272
 30
4.361306
 70
    64
  0
VERTEX
  8
SURFACE
 62
   254
  5
3AB
 10
-25.891151
 20
-13.052044
 30
4.240866
 70
    64
  0
VERTEX
  8
SURFACE
 62
   254
  5
3AC
 10
-29.011914
 20
-12.724791
 30
4.134535
 70
    64
  0
VERTEX
  8
SURFACE
 62
   254
  5
3AD
 10
-32.124097
 20
-12.330498
 30
4.006422
 70
    64
  0
VERTEX
  8
SURFACE
 62
   254
  5
3AE
 10
-35.226108
 20
-11.869367
 30
3.856591
 70
    64
  0
VERTEX
  8
SURFACE
 62
   254
  5
3AF
 10
-38.316361
 20
-11.341635
 30
3.68512
 70
    64
  0
VERTEX
  8
SURFACE
 62
   254
  5
3B0
 10
-41.393274
 20
-10.74757
 30
3.492097
 70
    64
  0
VERTEX
  8
SURFACE
 62
   254
  5
3B1
 10
-44.455273
 20
-10.087478
 30
3.27762
 70
    64
  0
VERTEX
  8
SURFACE
 62
   254
  5
3B2
 10
-46.79132
 20
-9.509704
 30
3.08989
 70
    64
  0
VERTEX
  8
SURFACE
 62
   254
  5
3B3
 10
-49.100908
 20
-8.842621
 30
2.873142
 70
    64
  0
VERTEX
  8
SURFACE
 62
   254
  5
3B4
 10
-51.380266
 20
-8.08732
 30
2.62773
 70
    64
  0
VERTEX
  8
SURFACE
 62
   254
  5
3B5
 10
-53.625669
 20
-7.245035
 30
2.354055
 70
    64
  0
VERTEX
  8
SURFACE
 62
   254
  5
3B6
 10
-55.833449
 20
-6.317141
 30
2.052563
 70
    64
  0
VERTEX
  8
SURFACE
 62
   254
  5
3B7
 10
-58.0
 20
-5.305154
 30
1.723749
 70
    64
  0
SEQEND
  8
SURFACE
 62
   254
  5
3B8
  0
POLYLINE
  8
NOSE
 62
   162
  5
632
 66
     1
 10
0.0
 20
0.0
 30
0.0
 70
    17
 71
    16
 72
     9
  0
VERTEX
  8
NOSE
 62
   162
  5
633
 10
54.714415
 20
0.0
 30
0.0
 70
    64
  0
VERTEX
  8
NOSE
 62
   162
  5
634
 10
54.508541
 20
0.0
 30
2.090279
 70
    64
  0
VERTEX
  8
NOSE
 62
   162
  5
635
 10
53.898829
 20
0.0
 30
4.100229
 70
    64
  0
VERTEX
  8
NOSE
 62
   162
  5
636
 10
52.908711
 20
0.0
 30
5.95261
 70
    64
  0
VERTEX
  8
NOSE
 62
   162
  5
637
 10
51.576236
 20
0.0
 30
7.576236
 70
    64
  0
VERTEX
  8
NOSE
 62
   162
  5
638
 10
49.95261
 20
0.0
 30
8.908711
 70
    64
  0
VERTEX
  8
NOSE
 62
   162
  5
639
 10
48.100229
 20
0.0
 30
9.898829
 70
    64
  0
VERTEX
  8
NOSE
 62
   162
  5
63A
 10
46.090279
 20
0.0
 30
10.508541
 70
    64
  0
VERTEX
  8
NOSE
 62
   162
  5
63B
 10
44.0
 20
0.0
 30
10.714415
 70
    64
  0
VERTEX
  8
NOSE
 62
   162
  5
63C
 10
54.714415
 20
0.0
 30
0.0
 70
    64
  0
VERTEX
  8
NOSE
 62
   162
  5
63D
 10
54.508541
 20
-0.799915
 30
1.931166
 70
    64
  0
VERTEX
  8
NOSE
 62
   162
  5
63E
 10
53.898829
 20
-1.56909
 30
3.788118
 70
    64
  0
VERTEX
  8
NOSE
 62
   162
  5
63F
 10
52.908711
 20
-2.277965
 30
5.499495
 70
    64
  0
VERTEX
  8
NOSE
 62
   162
  5
640
 10
51.576236
 20
-2.8993
 30
6.999529
 70
    64
  0
VERTEX
  8
NOSE
 62
   162
  5
641
 10
49.95261
 20
-3.409216
 30
8.230575
 70
    64
  0
VERTEX
  8
NOSE
 62
   162
  5
642
 10
48.100229
 20
-3.788118
 30
9.145325
 70
    64
  0
VERTEX
  8
NOSE
 62
   162
  5
643
 10
46.090279
 20
-4.021444
 30
9.708626
 70
    64
  0
VERTEX
  8
NOSE
 62
   162
  5
644
 10
44.0
 20
-4.100229
 30
9.898829
 70
    64
  0
VERTEX
  8
NOSE
 62
   162
  5
645
 10
54.714415
 20
0.0
 30
0.0
 70
    64
  0
VERTEX
  8
NOSE
 62
   162
  5
646
 10
54.508541
 20
-1.47805
 30
1.47805
 70
    64
  0
VERTEX
  8
NOSE
 62
   162
  5
647
 10
53.898829
 20
-2.8993
 30
2.8993
 70
    64
  0
VERTEX
  8
NOSE
 62
   162
  5
648
 10
52.908711
 20
-4.209131
 30
4.209131
 70
    64
  0
VERTEX
  8
NOSE
 62
   162
  5
649
 10
51.576236
 20
-5.357208
 30
5.357208
 70
    64
  0
VERTEX
  8
NOSE
 62
   162
  5
64A
 10
49.95261
 20
-6.29941
 30
6.29941
 70
    64
  0
VERTEX
  8
NOSE
 62
   162
  5
64B
 10
48.100229
 20
-6.999529
 30
6.999529
 70
    64
  0
VERTEX
  8
NOSE
 62
   162
  5
64C
 10
46.090279
 20
-7.43066
 30
7.43066
 70
    64
  0
VERTEX
  8
NOSE
 62
   162
  5
64D
 10
44.0
 20
-7.576236
 30
7.576236
 70
    64
  0
VERTEX
  8
NOSE
 62
   162
  5
64E
 10
54.714415
 20
0.0
 30
0.0
 70
    64
  0
VERTEX
  8
NOSE
 62
   162
  5
64F
 10
54.508541
 20
-1.931166
 30
0.799915
 70
    64
  0
VERTEX
  8
NOSE
 62
   162
  5
650
 10
53.898829
 20
-3.788118
 30
1.56909
 70
    64
  0
VERTEX
  8
NOSE
 62
   162
  5
651
 10
52.908711
 20
-5.499495
 30
2.277965
 70
    64
  0
VERTEX
  8
NOSE
 62
   162
  5
652
 10
51.576236
 20
-6.999529
 30
2.8993
 70
    64
  0
VERTEX
  8
NOSE
 62
   162
  5
653
 10
49.95261
 20
-8.230575
 30
3.409216
 70
    64
  0
VERTEX
  8
NOSE
 62
   162
  5
654
 10
48.100229
 20
-9.145325
 30
3.788118
 70
    64
  0
VERTEX
  8
NOSE
 62
   162
  5
655
 10
46.090279
 20
-9.708626
 30
4.021444
 70
    64
  0
VERTEX
  8
NOSE
 62
   162
  5
656
 10
44.0
 20
-9.898829
 30
4.100229
 70
    64
  0
VERTEX
  8
NOSE
 62
   162
  5
657
 10
54.714415
 20
0.0
 30
0.0
 70
    64
  0
VERTEX
  8
NOSE
 62
   162
  5
658
 10
54.508541
 20
-2.090279
 30
0.0
 70
    64
  0
VERTEX
  8
NOSE
 62
   162
  5
659
 10
53.898829
 20
-4.100229
 30
0.0
 70
    64
  0
VERTEX
  8
NOSE
 62
   162
  5
65A
 10
52.908711
 20
-5.95261
 30
0.0
 70
    64
  0
VERTEX
  8
NOSE
 62
   162
  5
65B
 10
51.576236
 20
-7.576236
 30
0.0
 70
    64
  0
VERTEX
  8
NOSE
 62
   162
  5
65C
 10
49.95261
 20
-8.908711
 30
0.0
 70
    64
  0
VERTEX
  8
NOSE
 62
   162
  5
65D
 10
48.100229
 20
-9.898829
 30
0.0
 70
    64
  0
VERTEX
  8
NOSE
 62
   162
  5
65E
 10
46.090279
 20
-10.508541
 30
0.0
 70
    64
  0
VERTEX
  8
NOSE
 62
   162
  5
65F
 10
44.0
 20
-10.714415
 30
0.0
 70
    64
  0
VERTEX
  8
NOSE
 62
   162
  5
660
 10
54.714415
 20
0.0
 30
0.0
 70
    64
  0
VERTEX
  8
NOSE
 62
   162
  5
661
 10
54.508541
 20
-1.931166
 30
-0.799915
 70
    64
  0
VERTEX
  8
NOSE
 62
   162
  5
662
 10
53.898829
 20
-3.788118
 30
-1.56909
 70
    64
  0
VERTEX
  8
NOSE
 62
   162
  5
663
 10
52.908711
 20
-5.499495
 30
-2.277965
 70
    64
  0
VERTEX
  8
NOSE
 62
   162
  5
664
 10
51.576236
 20
-6.999529
 30
-2.8993
 70
    64
  0
VERTEX
  8
NOSE
 62
   162
  5
665
 10
49.95261
 20
-8.230575
 30
-3.409216
 70
    64
  0
VERTEX
  8
NOSE
 62
   162
  5
666
 10
48.100229
 20
-9.145325
 30
-3.788118
 70
    64
  0
VERTEX
  8
NOSE
 62
   162
  5
667
 10
46.090279
 20
-9.708626
 30
-4.021444
 70
    64
  0
VERTEX
  8
NOSE
 62
   162
  5
668
 10
44.0
 20
-9.898829
 30
-4.100229
 70
    64
  0
VERTEX
  8
NOSE
 62
   162
  5
669
 10
54.714415
 20
0.0
 30
0.0
 70
    64
  0
VERTEX
  8
NOSE
 62
   162
  5
66A
 10
54.508541
 20
-1.47805
 30
-1.47805
 70
    64
  0
VERTEX
  8
NOSE
 62
   162
  5
66B
 10
53.898829
 20
-2.8993
 30
-2.8993
 70
    64
  0
VERTEX
  8
NOSE
 62
   162
  5
66C
 10
52.908711
 20
-4.209131
 30
-4.209131
 70
    64
  0
VERTEX
  8
NOSE
 62
   162
  5
66D
 10
51.576236
 20
-5.357208
 30
-5.357208
 70
    64
  0
VERTEX
  8
NOSE
 62
   162
  5
66E
 10
49.95261
 20
-6.29941
 30
-6.29941
 70
    64
  0
VERTEX
  8
NOSE
 62
   162
  5
66F
 10
48.100229
 20
-6.999529
 30
-6.999529
 70
    64
  0
VERTEX
  8
NOSE
 62
   162
  5
670
 10
46.090279
 20
-7.43066
 30
-7.43066
 70
    64
  0
VERTEX
  8
NOSE
 62
   162
  5
671
 10
44.0
 20
-7.576236
 30
-7.576236
 70
    64
  0
VERTEX
  8
NOSE
 62
   162
  5
672
 10
54.714415
 20
0.0
 30
0.0
 70
    64
  0
VERTEX
  8
NOSE
 62
   162
  5
673
 10
54.508541
 20
-0.799915
 30
-1.931166
 70
    64
  0
VERTEX
  8
NOSE
 62
   162
  5
674
 10
53.898829
 20
-1.56909
 30
-3.788118
 70
    64
  0
VERTEX
  8
NOSE
 62
   162
  5
675
 10
52.908711
 20
-2.277965
 30
-5.499495
 70
    64
  0
VERTEX
  8
NOSE
 62
   162
  5
676
 10
51.576236
 20
-2.8993
 30
-6.999529
 70
    64
  0
VERTEX
  8
NOSE
 62
   162
  5
677
 10
49.95261
 20
-3.409216
 30
-8.230575
 70
    64
  0
VERTEX
  8
NOSE
 62
   162
  5
678
 10
48.100229
 20
-3.788118
 30
-9.145325
 70
    64
  0
VERTEX
  8
NOSE
 62
   162
  5
679
 10
46.090279
 20
-4.021444
 30
-9.708626
 70
    64
  0
VERTEX
  8
NOSE
 62
   162
  5
67A
 10
44.0
 20
-4.100229
 30
-9.898829
 70
    64
  0
VERTEX
  8
NOSE
 62
   162
  5
67B
 10
54.714415
 20
0.0
 30
0.0
 70
    64
  0
VERTEX
  8
NOSE
 62
   162
  5
67C
 10
54.508541
 20
0.0
 30
-2.090279
 70
    64
  0
VERTEX
  8
NOSE
 62
   162
  5
67D
 10
53.898829
 20
0.0
 30
-4.100229
 70
    64
  0
VERTEX
  8
NOSE
 62
   162
  5
67E
 10
52.908711
 20
0.0
 30
-5.95261
 70
    64
  0
VERTEX
  8
NOSE
 62
   162
  5
67F
 10
51.576236
 20
0.0
 30
-7.576236
 70
    64
  0
VERTEX
  8
NOSE
 62
   162
  5
680
 10
49.95261
 20
0.0
 30
-8.908711
 70
    64
  0
VERTEX
  8
NOSE
 62
   162
  5
681
 10
48.100229
 20
0.0
 30
-9.898829
 70
    64
  0
VERTEX
  8
NOSE
 62
   162
  5
682
 10
46.090279
 20
0.0
 30
-10.508541
 70
    64
  0
VERTEX
  8
NOSE
 62
   162
  5
683
 10
44.0
 20
0.0
 30
-10.714415
 70
    64
  0
VERTEX
  8
NOSE
 62
   162
  5
684
 10
54.714415
 20
0.0
 30
0.0
 70
    64
  0
VERTEX
  8
NOSE
 62
   162
  5
685
 10
54.508541
 20
0.799915
 30
-1.931166
 70
    64
  0
VERTEX
  8
NOSE
 62
   162
  5
686
 10
53.898829
 20
1.56909
 30
-3.788118
 70
    64
  0
VERTEX
  8
NOSE
 62
   162
  5
687
 10
52.908711
 20
2.277965
 30
-5.499495
 70
    64
  0
VERTEX
  8
NOSE
 62
   162
  5
688
 10
51.576236
 20
2.8993
 30
-6.999529
 70
    64
  0
VERTEX
  8
NOSE
 62
   162
  5
689
 10
49.95261
 20
3.409216
 30
-8.230575
 70
    64
  0
VERTEX
  8
NOSE
 62
   162
  5
68A
 10
48.100229
 20
3.788118
 30
-9.145325
 70
    64
  0
VERTEX
  8
NOSE
 62
   162
  5
68B
 10
46.090279
 20
4.021444
 30
-9.708626
 70
    64
  0
VERTEX
  8
NOSE
 62
   162
  5
68C
 10
44.0
 20
4.100229
 30
-9.898829
 70
    64
  0
VERTEX
  8
NOSE
 62
   162
  5
68D
 10
54.714415
 20
0.0
 30
0.0
 70
    64
  0
VERTEX
  8
NOSE
 62
   162
  5
68E
 10
54.508541
 20
1.47805
 30
-1.47805
 70
    64
  0
VERTEX
  8
NOSE
 62
   162
  5
68F
 10
53.898829
 20
2.8993
 30
-2.8993
 70
    64
  0
VERTEX
  8
NOSE
 62
   162
  5
690
 10
52.908711
 20
4.209131
 30
-4.209131
 70
    64
  0
VERTEX
  8
NOSE
 62
   162
  5
691
 10
51.576236
 20
5.357208
 30
-5.357208
 70
    64
  0
VERTEX
  8
NOSE
 62
   162
  5
692
 10
49.95261
 20
6.29941
 30
-6.29941
 70
    64
  0
VERTEX
  8
NOSE
 62
   162
  5
693
 10
48.100229
 20
6.999529
 30
-6.999529
 70
    64
  0
VERTEX
  8
NOSE
 62
   162
  5
694
 10
46.090279
 20
7.43066
 30
-7.43066
 70
    64
  0
VERTEX
  8
NOSE
 62
   162
  5
695
 10
44.0
 20
7.576236
 30
-7.576236
 70
    64
  0
VERTEX
  8
NOSE
 62
   162
  5
696
 10
54.714415
 20
0.0
 30
0.0
 70
    64
  0
VERTEX
  8
NOSE
 62
   162
  5
697
 10
54.508541
 20
1.931166
 30
-0.799915
 70
    64
  0
VERTEX
  8
NOSE
 62
   162
  5
698
 10
53.898829
 20
3.788118
 30
-1.56909
 70
    64
  0
VERTEX
  8
NOSE
 62
   162
  5
699
 10
52.908711
 20
5.499495
 30
-2.277965
 70
    64
  0
VERTEX
  8
NOSE
 62
   162
  5
69A
 10
51.576236
 20
6.999529
 30
-2.8993
 70
    64
  0
VERTEX
  8
NOSE
 62
   162
  5
69B
 10
49.95261
 20
8.230575
 30
-3.409216
 70
    64
  0
VERTEX
  8
NOSE
 62
   162
  5
69C
 10
48.100229
 20
9.145325
 30
-3.788118
 70
    64
  0
VERTEX
  8
NOSE
 62
   162
  5
69D
 10
46.090279
 20
9.708626
 30
-4.021444
 70
    64
  0
VERTEX
  8
NOSE
 62
   162
  5
69E
 10
44.0
 20
9.898829
 30
-4.100229
 70
    64
  0
VERTEX
  8
NOSE
 62
   162
  5
69F
 10
54.714415
 20
0.0
 30
0.0
 70
    64
  0
VERTEX
  8
NOSE
 62
   162
  5
6A0
 10
54.508541
 20
2.090279
 30
0.0
 70
    64
  0
VERTEX
  8
NOSE
 62
   162
  5
6A1
 10
53.898829
 20
4.100229
 30
0.0
 70
    64
  0
VERTEX
  8
NOSE
 62
   162
  5
6A2
 10
52.908711
 20
5.95261
 30
0.0
 70
    64
  0
VERTEX
  8
NOSE
 62
   162
  5
6A3
 10
51.576236
 20
7.576236
 30
0.0
 70
    64
  0
VERTEX
  8
NOSE
 62
   162
  5
6A4
 10
49.95261
 20
8.908711
 30
0.0
 70
    64
  0
VERTEX
  8
NOSE
 62
   162
  5
6A5
 10
48.100229
 20
9.898829
 30
0.0
 70
    64
  0
VERTEX
  8
NOSE
 62
   162
  5
6A6
 10
46.090279
 20
10.508541
 30
0.0
 70
    64
  0
VERTEX
  8
NOSE
 62
   162
  5
6A7
 10
44.0
 20
10.714415
 30
0.0
 70
    64
  0
VERTEX
  8
NOSE
 62
   162
  5
6A8
 10
54.714415
 20
0.0
 30
0.0
 70
    64
  0
VERTEX
  8
NOSE
 62
   162
  5
6A9
 10
54.508541
 20
1.931166
 30
0.799915
 70
    64
  0
VERTEX
  8
NOSE
 62
   162
  5
6AA
 10
53.898829
 20
3.788118
 30
1.56909
 70
    64
  0
VERTEX
  8
NOSE
 62
   162
  5
6AB
 10
52.908711
 20
5.499495
 30
2.277965
 70
    64
  0
VERTEX
  8
NOSE
 62
   162
  5
6AC
 10
51.576236
 20
6.999529
 30
2.8993
 70
    64
  0
VERTEX
  8
NOSE
 62
   162
  5
6AD
 10
49.95261
 20
8.230575
 30
3.409216
 70
    64
  0
VERTEX
  8
NOSE
 62
   162
  5
6AE
 10
48.100229
 20
9.145325
 30
3.788118
 70
    64
  0
VERTEX
  8
NOSE
 62
   162
  5
6AF
 10
46.090279
 20
9.708626
 30
4.021444
 70
    64
  0
VERTEX
  8
NOSE
 62
   162
  5
6B0
 10
44.0
 20
9.898829
 30
4.100229
 70
    64
  0
VERTEX
  8
NOSE
 62
   162
  5
6B1
 10
54.714415
 20
0.0
 30
0.0
 70
    64
  0
VERTEX
  8
NOSE
 62
   162
  5
6B2
 10
54.508541
 20
1.47805
 30
1.47805
 70
    64
  0
VERTEX
  8
NOSE
 62
   162
  5
6B3
 10
53.898829
 20
2.8993
 30
2.8993
 70
    64
  0
VERTEX
  8
NOSE
 62
   162
  5
6B4
 10
52.908711
 20
4.209131
 30
4.209131
 70
    64
  0
VERTEX
  8
NOSE
 62
   162
  5
6B5
 10
51.576236
 20
5.357208
 30
5.357208
 70
    64
  0
VERTEX
  8
NOSE
 62
   162
  5
6B6
 10
49.95261
 20
6.29941
 30
6.29941
 70
    64
  0
VERTEX
  8
NOSE
 62
   162
  5
6B7
 10
48.100229
 20
6.999529
 30
6.999529
 70
    64
  0
VERTEX
  8
NOSE
 62
   162
  5
6B8
 10
46.090279
 20
7.43066
 30
7.43066
 70
    64
  0
VERTEX
  8
NOSE
 62
   162
  5
6B9
 10
44.0
 20
7.576236
 30
7.576236
 70
    64
  0
VERTEX
  8
NOSE
 62
   162
  5
6BA
 10
54.714415
 20
0.0
 30
0.0
 70
    64
  0
VERTEX
  8
NOSE
 62
   162
  5
6BB
 10
54.508541
 20
0.799915
 30
1.931166
 70
    64
  0
VERTEX
  8
NOSE
 62
   162
  5
6BC
 10
53.898829
 20
1.56909
 30
3.788118
 70
    64
  0
VERTEX
  8
NOSE
 62
   162
  5
6BD
 10
52.908711
 20
2.277965
 30
5.499495
 70
    64
  0
VERTEX
  8
NOSE
 62
   162
  5
6BE
 10
51.576236
 20
2.8993
 30
6.999529
 70
    64
  0
VERTEX
  8
NOSE
 62
   162
  5
6BF
 10
49.95261
 20
3.409216
 30
8.230575
 70
    64
  0
VERTEX
  8
NOSE
 62
   162
  5
6C0
 10
48.100229
 20
3.788118
 30
9.145325
 70
    64
  0
VERTEX
  8
NOSE
 62
   162
  5
6C1
 10
46.090279
 20
4.021444
 30
9.708626
 70
    64
  0
VERTEX
  8
NOSE
 62
   162
  5
6C2
 10
44.0
 20
4.100229
 30
9.898829
 70
    64
  0
SEQEND
  8
NOSE
 62
   162
  5
6C3
  0
INSERT
  8
HUB_FINS
 62
    10
  5
763
  2
*U6
 10
4.0
 20
2.0
 30
62.0
 50
90.0
210
-1.0
220
0.0
230
0.0
1001
AME_SOL
1002
{
1070
     1
1071
  1625956
1070
  9224
1070
    11
1070
     6
1040
2.0
1040
0.0
1010
0.0
1020
0.0
1030
0.0
1010
2.309401
1020
4.0
1030
0.0
1010
0.0
1020
8.0
1030
0.0
1010
-4.618802
1020
8.0
1030
0.0
1010
-6.928203
1020
4.0
1030
0.0
1010
-4.618802
1020
0.0
1030
0.0
1005
905
1005
764
1005
0
1040
166.276878
1040
1.0
1070
     0
1000
MILD_STEEL
1000
0
1002
}
1001
AVE_INVOKE
1000
SOLAVEMESH
  0
INSERT
  8
AME_FRZ
  5
764
  2
AME_NIL
 10
1.0
 20
1.0
 30
1.0
1001
AME_SOL
1004
C7CF01003B019D019C019A0196018E017F01690151013801260115016800690016016A006B002701170101010001FD000201A000F80018010301F70099000401190024003901280119010501EC003B000601D70046001A010701CE00CD00080159005B0029011B0109015F0062000A0163008B001C010B01
1004
64006C000C01B400AA00EE006A01520148001D00750080016B01530105005C0054011000DF006C0155013A016000FB003B015300C40056013C015700560044008F01810102006D0196003C0082016E01570150003D01A6000C004500C0009701900183016F019000B6007001580188003E0059013E015200
1004
AC003F011C00E0003F0091018401710133005A0140012A019F00B0002B01A300650091007201BE005B0141012C011F00B90054005800850173015C014C0072005D017A0042018E00EF007401BF005E014301D8002D01A9000300FE009B01980192018601E80075015F018000A40020008701FF0076016001
1004
BC004E0061014401A1007B004501D2002700930188011A00770162014601E4007C0047012E0104001D019A001E002F011E01E7005D001F016E000D0183000800B80089010100F000990194018A017801120063018400480178006D00790164012E00EB0065014901140022004A012C0030008B017A01A700
1004
66014B01D000300170007E004C01BB007700400095018C017B01160011007C011800F4008D017D0167014D011B0031010F0098004E013201F2002F003301A800E90068014F01340139004700350120010600810021019400DE00500136012201C8000E01FC00F90023010F01F600EA001001E50038003701
1004
24011101CF00C9001201C7008C00250113018A0089001401660067007E01B700790000007B53EDED4FB3E832B5EC92492C98018ABF5B8CCCD587A748BC0740AEDC3974F8D20576E1CBA7C68F8D6183F68FC46D919ACF64D1B6AC90757DB5B865E47A91999AB0F4E91780E815DB872E9F1A40AEDC3974F8D1
1004
F1AC307ED1F88DB23359EC9A36D02BB70E5D3E255AC49AC666295BAD32FB126FFAE5FFFFFFFD72FFFFFFFF847FFFFF5CBFFFEC49BFEB9EFFF1CE5217FD13F5CBFFFD13FFFC23FFFFFFFFFAE50CBC8F523333561E9D22F01D02BB70E5D3E346605AB3B1FA4914F8D6183F68FC46D919ACF64D1B6AC90757DB
1004
5AC49AD467295BAD7BEEC49BFEB97FFFFFFF5CBFFFFFFFDB08FFFFFFFFFFB126FFAE5FFFFFFFD72FFFFFFFF6C23FFFFFFFFFAE50CBC8AA552D75D38D1FB01D02BB70E5D3E34815DB872E9F1A40AEDC3974F89502BB70E5D3E2556483ABEDAD624D40614ADD6800EC49BFAA13A61E8FBCC662FF5CBFAE7BEF
1004
3198BFFFFFFFF08FFFFFFFFFFB126FA22A4EEAB00BD1E39C9DC5FEB9EFD72F8E72774CFE888CC101AD1FB01FFFFC23FFFFFFFFFAE50CBC8AA46666AC3D3A45E03A0576E1CBA7C6902BB70E5D3E341B02F2BCE327EC07090F0C04E14DAB241D5F6D6B12693898A56EB5EFFB126EF1B5465A71EBBD63B0B13D
1004
E67AA2FF5CA27C9E78FA383740E88B297FD1982035A3F603FFFF847FFFFFFFFFD89377B4229E63A7C5B28B6A2492478E42C5FEB9E7B8492492482CA6C9C1BA0744594F7F44324E0DD03A22F01FF0A6FFC23FFFFFFFFFAE50CBC8AA46666AC3D3A45E038235CAF4A493C4DA0576E1CBA7C683605E579C64FD
1004
80EC8CD67B268DB56483ABEDAD624D440D295BAD01DEC49BBC6D51969C7AEF58EC2C4F799EAA67EB944F93CA7D1C1BA0744594BFE649C1BA07445E03FE14DFF847FFFFFFFFFD89373E114F31D3E2D945BD1C7390B4CFD73C0BF279E554706E81D11653DFD111982035A3F603FE8DBFF08FFFFFFFFFEB9432
1004
F22A954B5D74E347EC07456B190652491B0DA0576E1CBA7C6902BB70E5D3E256466B3D9346DAB241D5F6D6B126AA0DAA56EB401F624DFD509D30F47DE6334CFD72FEB97EF3198BFF466080D68FD80FFA36FFC23FFFFFFFFFEC49BE88ABC40024EE6CF8E72774CFD73DFAE7BC02804D717FD13FFF46DFF847
1004
FFFFFFFFF5CA1979154A0576E1CBA7C6811AE57A5249E26D02BB70E5D3E347C6B0C1FB47E236C8CD67B268DB56483ABEDAD624D040EA95BAD005D893778DAA32D38F5DEB1D930FBF799EAA67EB94FBF93CA7D1C1BA0744594F7FFFFE8DBFF08FFFFFFFFFFB126EF68453CC74F8B654C01449248F1C85A67E
1004
B9E015492492482CF1B2706E81D11652FF44466080D68FC46FF0A6FFC23FFFFFFFFFAE50CBC8AA502BB70E5D3E34815DB872E9F1A40AEDC3974F8D1F1AC307ED1F88D8487860270A6D5920EAFB6B589349A1C52B75A007B126EF1B5465A71EBBD63B261F7EF33D517FAE53EFE4F3C7D1C1BA0744594F7FA3
1004
30406B47E237F8537FE11FFFFFFFFFF624DC0488A798E9F16CA98023C7390B17FAE7955FC9E500D383740E88B297FA27FFFFF847FFFFFFFFF5CA8A0552D75D38D1FB01D02BB70E5D3E34815DB872E9F1A40AEDC3974F89502BB70E5D3E2540AEDC3974F897FD1982035A3F60D89140C3CDD4EB56B1998A50
1004
185389633314A030A56EB7140FF1CE4EE2F44549DD561FBD1FAE5F1CE5217FAE7BFD1982035A3F603FFFF89FF466080D68FD8368A046666AC3D3A45E03A0576E1CBA7C6902BB70E5D3E341B02F2BCE327EC07090F0C04E14DA0576E1CBA7C4BFE0A6080D68FD836245032680B29D6AD63331493898A712C6
1004
6629271314ADD6E281ED571CE42C5BDD114F31D3E2D9533F5CAF7A706E81D11653CF47C9E7BFCC9383740E88BC07FC29BFF13FE0A6080D68FD8368A046666AC3D3A45E038235CAF4A493C4DA0576E1CBA7C683605E579C64FD80EC8CD67B268DB40AEDC3974F897FC14C101AD1FB06C48A06CC01753AD5AC
1004
66629440D29C4B1998A51034A56EB7140F78D24923C721698F51F2798E9F16CA99FAE57B9383740E88B29E1492492490597FD1982035A3F603FE8DBFF13FE0A6080D68FD8368A0552D75D38D1FB01D15AC641949246C36815DB872E9F1A40AEDC3974F895919ACF64D1B6815DB872E9F12FFA330406B47EC
1004
1B12281AA4254EB56B1998A5506D5389633314AA0DAA56EB7140FF1CE4EE99DECD55AAD3F367F5CBE88F6C7E99FAE5FFFFFD1B7FE27FD1982035A3F60DA28140AEDC3974F8D0235CAF4A493C4DA0576E1CBA7C68F8D6183F68FC46D919ACF64D1B6815DB872E9F12FF82982035A3F60D89140D50AB54EB56
1004
B1998A4103AA712C66629040EA95BADC503D5771CE42D31EC114F31D3E2D945FEB95EF0E0DD03A22CA57B7F93CBFE8CC101AD1F88DFE14DFF89FF0530406B47EC1B4502815DB872E9F1A40AEDC3974F8D20576E1CBA7C68F8D6183F68FC46C243C30138536815DB872E9F12FF82982035A3F60D89140CE00
1004
614EB56B1998A49A1C538963331493438A56EB7140F55492491E390B1610F93CC74F8B6517FAE57B0706E81D11652BC69249249059EFFFFFFFF13FE0A6080D68FD8368A0552D75D38D1FB01D02BB70E5D3E346605AB3B1FA491502BB70E5D3E2540AEDC3974F8955920EAFB7FE8CC101AD1FB06C48A0603C
1004
1853AD5AD4672940614E2501852D467295BADC503FC7393B8BD1152775587EF47EB97C739485FEB9EFF466080D68FD80FFFFDB13FE8CC101AD1FB06D1408CCCD587A748BC0740AEDC3974F8D19816ACEC7E92450D81795E7193F6038487860270A6D5920EAFB7FE0A6080D68FD836245032700CA9D6AD6A3
1004
39493898A7124E26296A3394ADD6E281ED571CE42C5BDD114F31D3E2D9533F5CAF7A706E81D11653CF47C9E7BFCC9383740E88BC07FC29BFED89FF0530406B47EC1B45023333561E9D22F01C11AE57A5249E26CCC0B56763F492286C0BCAF38C9FB01D919ACF64D1B6AC90757DBFF0530406B47EC1B12281
1004
B100D29D6AD6A3394A20694E251034A5A8CE52B75B8A07BC692491E390B4C7A8F93CC74F8B654CFD72BDC9C1BA0744594F0A492492482CBFE8CC101AD1FB01FF46DFF6C4FF82982035A3F60DA28154B5D74E347EC07456B190652491B0D99816ACEC7E924540AEDC3974F895919ACF64D1B6AC90757DBFF4
1004
66080D68FD8362450301001C53AD5AD46729541B54E25506D52D467295BADC503FC7393BA677B3556AB4FCD9FD72FA23DB1FA67EB97FFFFF46DFF6C4FFA330406B47EC1B4502815DB872E9F1A046B95E9492789B3302D59D8FD248A7C6B0C1FB47E236C8CD67B268DB56483ABEDFF82982035A3F60D89140
1004
CDAF7CA75AB5A8CE52081D5389040EA96A3394ADD6E281EABB8E721698F608A798E9F16CA2FF5CAF78706E81D11652BDBFC9E5FF466080D68FC46FF0A6FFB627FC14C101AD1FB06D140A0576E1CBA7C6902BB70E5D3E346605AB3B1FA4914F8D6183F68FC46C243C30138536AC90757DBFF0530406B47EC1
1004
B12281A63DFA9D6AD6A339493438A7124D0E296A3394ADD6E281EAA924923C72162C21F2798E9F16CA2FF5CAF60E0DD03A22CA578D24924920B3DFFFFFFFDB13FE0A6080D68FD8368A0552D75D38D1FB01D02BB70E5D3E34815DB872E9F1A0D81795E7193F603A0576E1CBA7C4AAC90757DBFD73DFAE5122
1004
8180780153AD5A80C29271314E25018524E26295BADC503FF5CBFFFFFFFAE5FF466080D68FD80FFFFAE513FAE7BF5CA8A0502BB70E5D3E34815DB872E9F1A40AEDC3974F8D20576E1CBA7C4A815DB872E9F12AB241D5F6FF5CF7EB9448A06F760094EB56A030A49A1C5389268714A030A56EB7140FFD72FF
1004
FFFFFEB97FFFFFFF5CA27F5CF7EB951408CCCD587A748BC07046B95E9492789B40AEDC3974F8D1B557C02C06CE88BC07090F0C04E14DAB241D5F6FF5CF7EB9448A06EC01A9D6AD271314A20694E249C4C52881A52B75B8A07FEB97FFFFFFF5CBFE649C1BA07445E03FE14DFEB944FEB9EFD72A28154B5D74
1004
E347EC07456B190652491B0DA0576E1CBA7C683605E579C64FD80EC8CD67B268DB56483ABEDFEB9EFD7289140C258EA75AB51034A5506D5389440D29541B54ADD6E281FFAE5FFFFFFFD72FFA330406B47EC07FD1B7FAE513FAE7BF5CA8A0502BB70E5D3E348AD6320CA492361B40AEDC3974F8D20576E1CB
1004
A7C4AC8CD67B268DB56483ABEDFEB9EFD7289140C36AB94EB56AA0DAA4103AA712A836A9040EA95BADC503FF5CBFFFFFFFAE5FFFFFD1B7FAE513FAE7BF5CA8A040000FBDC3DD8C9F88D8235CAF4A493C4DA0576E1CBA7C68F8D6183F68FC46C243C30138536AC90757DBFD73DFAE512281B39AA53AD5A081
1004
D524D0E29C482075493438A56EB7140FFD72FFFFFFFEB97FD1982035A3F11BFC29BFD7289FD73DFAE500E7B20085
1005
765
  0
INSERT
  8
AME_FRZ
  5
765
  2
AME_NIL
 10
1.0
 20
1.0
 30
1.0
1001
AME_SOL
1004

1005
0
  0
POLYLINE
  8
HUB_FINS
 62
   251
  5
80E
 66
     1
 10
0.0
 20
0.0
 30
0.0
 70
    48
 71
     2
 72
    20
  0
VERTEX
  8
HUB_FINS
 62
   251
  5
80F
 10
-63.082439
 20
-4.052574
 30
0.972358
 70
    64
  0
VERTEX
  8
HUB_FINS
 62
   251
  5
810
 10
-62.992518
 20
-4.052574
 30
0.673902
 70
    64
  0
VERTEX
  8
HUB_FINS
 62
   251
  5
811
 10
-62.928039
 20
-4.052574
 30
0.368768
 70
    64
  0
VERTEX
  8
HUB_FINS
 62
   251
  5
812
 10
-62.879351
 20
-4.052574
 30
0.060676
 70
    64
  0
VERTEX
  8
HUB_FINS
 62
   251
  5
813
 10
-62.841373
 20
-4.052574
 30
-0.24892
 70
    64
  0
VERTEX
  8
HUB_FINS
 62
   251
  5
814
 10
-62.814152
 20
-4.052574
 30
-0.559645
 70
    64
  0
VERTEX
  8
HUB_FINS
 62
   251
  5
815
 10
-62.797721
 20
-4.052574
 30
-0.871128
 70
    64
  0
VERTEX
  8
HUB_FINS
 62
   251
  5
816
 10
-62.797349
 20
-4.052574
 30
-1.183
 70
    64
  0
VERTEX
  8
HUB_FINS
 62
   251
  5
817
 10
-62.823253
 20
-4.052574
 30
-1.49363
 70
    64
  0
VERTEX
  8
HUB_FINS
 62
   251
  5
818
 10
-62.933211
 20
-4.052574
 30
-1.766835
 70
    64
  0
VERTEX
  8
HUB_FINS
 62
   251
  5
819
 10
-63.097569
 20
-4.052574
 30
-1.522462
 70
    64
  0
VERTEX
  8
HUB_FINS
 62
   251
  5
81A
 10
-63.18749
 20
-4.052574
 30
-1.224005
 70
    64
  0
VERTEX
  8
HUB_FINS
 62
   251
  5
81B
 10
-63.251969
 20
-4.052574
 30
-0.918871
 70
    64
  0
VERTEX
  8
HUB_FINS
 62
   251
  5
81C
 10
-63.300657
 20
-4.052574
 30
-0.610779
 70
    64
  0
VERTEX
  8
HUB_FINS
 62
   251
  5
81D
 10
-63.338634
 20
-4.052574
 30
-0.301184
 70
    64
  0
VERTEX
  8
HUB_FINS
 62
   251
  5
81E
 10
-63.365856
 20
-4.052574
 30
0.009542
 70
    64
  0
VERTEX
  8
HUB_FINS
 62
   251
  5
81F
 10
-63.382287
 20
-4.052574
 30
0.321025
 70
    64
  0
VERTEX
  8
HUB_FINS
 62
   251
  5
820
 10
-63.382658
 20
-4.052574
 30
0.632897
 70
    64
  0
VERTEX
  8
HUB_FINS
 62
   251
  5
821
 10
-63.356754
 20
-4.052574
 30
0.943527
 70
    64
  0
VERTEX
  8
HUB_FINS
 62
   251
  5
822
 10
-63.246797
 20
-4.052574
 30
1.216731
 70
    64
  0
VERTEX
  8
HUB_FINS
 62
   251
  5
823
 10
-63.097276
 20
-18.052574
 30
0.888564
 70
    64
  0
VERTEX
  8
HUB_FINS
 62
   251
  5
824
 10
-62.991858
 20
-18.052574
 30
0.595223
 70
    64
  0
VERTEX
  8
HUB_FINS
 62
   251
  5
825
 10
-62.911498
 20
-18.052574
 30
0.293882
 70
    64
  0
VERTEX
  8
HUB_FINS
 62
   251
  5
826
 10
-62.846752
 20
-18.052574
 30
-0.01124
 70
    64
  0
VERTEX
  8
HUB_FINS
 62
   251
  5
827
 10
-62.792624
 20
-18.052574
 30
-0.318423
 70
    64
  0
VERTEX
  8
HUB_FINS
 62
   251
  5
828
 10
-62.749178
 20
-18.052574
 30
-0.627299
 70
    64
  0
VERTEX
  8
HUB_FINS
 62
   251
  5
829
 10
-62.716467
 20
-18.052574
 30
-0.937495
 70
    64
  0
VERTEX
  8
HUB_FINS
 62
   251
  5
82A
 10
-62.699774
 20
-18.052574
 30
-1.24892
 70
    64
  0
VERTEX
  8
HUB_FINS
 62
   251
  5
82B
 10
-62.709386
 20
-18.052574
 30
-1.56048
 70
    64
  0
VERTEX
  8
HUB_FINS
 62
   251
  5
82C
 10
-62.804894
 20
-18.052574
 30
-1.839065
 70
    64
  0
VERTEX
  8
HUB_FINS
 62
   251
  5
82D
 10
-62.981816
 20
-18.052574
 30
-1.603628
 70
    64
  0
VERTEX
  8
HUB_FINS
 62
   251
  5
82E
 10
-63.087234
 20
-18.052574
 30
-1.310287
 70
    64
  0
VERTEX
  8
HUB_FINS
 62
   251
  5
82F
 10
-63.167594
 20
-18.052574
 30
-1.008946
 70
    64
  0
VERTEX
  8
HUB_FINS
 62
   251
  5
830
 10
-63.23234
 20
-18.052574
 30
-0.703824
 70
    64
  0
VERTEX
  8
HUB_FINS
 62
   251
  5
831
 10
-63.286468
 20
-18.052574
 30
-0.396641
 70
    64
  0
VERTEX
  8
HUB_FINS
 62
   251
  5
832
 10
-63.329914
 20
-18.052574
 30
-0.087765
 70
    64
  0
VERTEX
  8
HUB_FINS
 62
   251
  5
833
 10
-63.362625
 20
-18.052574
 30
0.222431
 70
    64
  0
VERTEX
  8
HUB_FINS
 62
   251
  5
834
 10
-63.379318
 20
-18.052574
 30
0.533856
 70
    64
  0
VERTEX
  8
HUB_FINS
 62
   251
  5
835
 10
-63.369706
 20
-18.052574
 30
0.845416
 70
    64
  0
VERTEX
  8
HUB_FINS
 62
   251
  5
836
 10
-63.274198
 20
-18.052574
 30
1.124
 70
    64
  0
SEQEND
  8
HUB_FINS
 62
   251
  5
837
  0
LINE
  8
BASELINES
  5
838
 10
54.0
 20
100.0
 30
0.0
 11
144.0
 21
100.0
 31
0.0
  0
POLYLINE
  8
HUB_FINS
 62
   251
  5
839
 66
     1
 10
0.0
 20
0.0
 30
0.0
 70
    48
 71
     2
 72
    20
  0
VERTEX
  8
HUB_FINS
 62
   251
  5
83A
 10
-63.002655
 20
3.13146
 30
2.54833
 70
    64
  0
VERTEX
  8
HUB_FINS
 62
   251
  5
83B
 10
-62.944423
 20
2.866265
 30
2.70144
 70
    64
  0
VERTEX
  8
HUB_FINS
 62
   251
  5
83C
 10
-62.912192
 20
2.597622
 30
2.856542
 70
    64
  0
VERTEX
  8
HUB_FINS
 62
   251
  5
83D
 10
-62.895975
 20
2.327861
 30
3.012288
 70
    64
  0
VERTEX
  8
HUB_FINS
 62
   251
  5
83E
 10
-62.890568
 20
2.057774
 30
3.168223
 70
    64
  0
VERTEX
  8
HUB_FINS
 62
   251
  5
83F
 10
-62.895975
 20
1.787688
 30
3.324157
 70
    64
  0
VERTEX
  8
HUB_FINS
 62
   251
  5
840
 10
-62.912192
 20
1.517926
 30
3.479904
 70
    64
  0
VERTEX
  8
HUB_FINS
 62
   251
  5
841
 10
-62.944423
 20
1.249283
 30
3.635006
 70
    64
  0
VERTEX
  8
HUB_FINS
 62
   251
  5
842
 10
-63.002655
 20
0.984088
 30
3.788116
 70
    64
  0
VERTEX
  8
HUB_FINS
 62
   251
  5
843
 10
-63.140568
 20
0.758736
 30
3.918223
 70
    64
  0
VERTEX
  8
HUB_FINS
 62
   251
  5
844
 10
-63.278481
 20
0.984088
 30
3.788116
 70
    64
  0
VERTEX
  8
HUB_FINS
 62
   251
  5
845
 10
-63.336712
 20
1.249283
 30
3.635006
 70
    64
  0
VERTEX
  8
HUB_FINS
 62
   251
  5
846
 10
-63.368943
 20
1.517926
 30
3.479904
 70
    64
  0
VERTEX
  8
HUB_FINS
 62
   251
  5
847
 10
-63.38516
 20
1.787688
 30
3.324157
 70
    64
  0
VERTEX
  8
HUB_FINS
 62
   251
  5
848
 10
-63.390568
 20
2.057774
 30
3.168223
 70
    64
  0
VERTEX
  8
HUB_FINS
 62
   251
  5
849
 10
-63.38516
 20
2.327861
 30
3.012288
 70
    64
  0
VERTEX
  8
HUB_FINS
 62
   251
  5
84A
 10
-63.368943
 20
2.597622
 30
2.856542
 70
    64
  0
VERTEX
  8
HUB_FINS
 62
   251
  5
84B
 10
-63.336712
 20
2.866265
 30
2.70144
 70
    64
  0
VERTEX
  8
HUB_FINS
 62
   251
  5
84C
 10
-63.278481
 20
3.13146
 30
2.54833
 70
    64
  0
VERTEX
  8
HUB_FINS
 62
   251
  5
84D
 10
-63.140568
 20
3.356812
 30
2.418223
 70
    64
  0
VERTEX
  8
HUB_FINS
 62
   251
  5
84E
 10
-63.026169
 20
10.060633
 30
14.713578
 70
    64
  0
VERTEX
  8
HUB_FINS
 62
   251
  5
84F
 10
-62.951991
 20
9.798441
 30
14.864954
 70
    64
  0
VERTEX
  8
HUB_FINS
 62
   251
  5
850
 10
-62.90357
 20
9.531627
 30
15.019
 70
    64
  0
VERTEX
  8
HUB_FINS
 62
   251
  5
851
 10
-62.871072
 20
9.26297
 30
15.174109
 70
    64
  0
VERTEX
  8
HUB_FINS
 62
   251
  5
852
 10
-62.84935
 20
8.993499
 30
15.329688
 70
    64
  0
VERTEX
  8
HUB_FINS
 62
   251
  5
853
 10
-62.838429
 20
8.723537
 30
15.48555
 70
    64
  0
VERTEX
  8
HUB_FINS
 62
   251
  5
854
 10
-62.838321
 20
8.45341
 30
15.641508
 70
    64
  0
VERTEX
  8
HUB_FINS
 62
   251
  5
855
 10
-62.854273
 20
8.183675
 30
15.79724
 70
    64
  0
VERTEX
  8
HUB_FINS
 62
   251
  5
856
 10
-62.896398
 20
7.916204
 30
15.951664
 70
    64
  0
VERTEX
  8
HUB_FINS
 62
   251
  5
857
 10
-63.020504
 20
7.68491
 30
16.085202
 70
    64
  0
VERTEX
  8
HUB_FINS
 62
   251
  5
858
 10
-63.171846
 20
7.903702
 30
15.958882
 70
    64
  0
VERTEX
  8
HUB_FINS
 62
   251
  5
859
 10
-63.246025
 20
8.165894
 30
15.807506
 70
    64
  0
VERTEX
  8
HUB_FINS
 62
   251
  5
85A
 10
-63.294446
 20
8.432708
 30
15.65346
 70
    64
  0
VERTEX
  8
HUB_FINS
 62
   251
  5
85B
 10
-63.326943
 20
8.701365
 30
15.498351
 70
    64
  0
VERTEX
  8
HUB_FINS
 62
   251
  5
85C
 10
-63.348665
 20
8.970837
 30
15.342772
 70
    64
  0
VERTEX
  8
HUB_FINS
 62
   251
  5
85D
 10
-63.359587
 20
9.240798
 30
15.18691
 70
    64
  0
VERTEX
  8
HUB_FINS
 62
   251
  5
85E
 10
-63.359694
 20
9.510925
 30
15.030952
 70
    64
  0
VERTEX
  8
HUB_FINS
 62
   251
  5
85F
 10
-63.343743
 20
9.780661
 30
14.87522
 70
    64
  0
VERTEX
  8
HUB_FINS
 62
   251
  5
860
 10
-63.301617
 20
10.048131
 30
14.720796
 70
    64
  0
VERTEX
  8
HUB_FINS
 62
   251
  5
861
 10
-63.177512
 20
10.279426
 30
14.587258
 70
    64
  0
SEQEND
  8
HUB_FINS
 62
   251
  5
862
  0
POLYLINE
  8
HUB_FINS
 62
   251
  5
863
 66
     1
 10
0.0
 20
0.0
 30
0.0
 70
    48
 71
     2
 72
    20
  0
VERTEX
  8
HUB_FINS
 62
   251
  5
864
 10
-62.995501
 20
1.001991
 30
-4.400889
 70
    64
  0
VERTEX
  8
HUB_FINS
 62
   251
  5
865
 10
-62.937269
 20
1.267186
 30
-4.247778
 70
    64
  0
VERTEX
  8
HUB_FINS
 62
   251
  5
866
 10
-62.905039
 20
1.535829
 30
-4.092677
 70
    64
  0
VERTEX
  8
HUB_FINS
 62
   251
  5
867
 10
-62.888822
 20
1.805591
 30
-3.93693
 70
    64
  0
VERTEX
  8
HUB_FINS
 62
   251
  5
868
 10
-62.883414
 20
2.075677
 30
-3.780996
 70
    64
  0
VERTEX
  8
HUB_FINS
 62
   251
  5
869
 10
-62.888822
 20
2.345764
 30
-3.625061
 70
    64
  0
VERTEX
  8
HUB_FINS
 62
   251
  5
86A
 10
-62.905039
 20
2.615525
 30
-3.469314
 70
    64
  0
VERTEX
  8
HUB_FINS
 62
   251
  5
86B
 10
-62.937269
 20
2.884168
 30
-3.314213
 70
    64
  0
VERTEX
  8
HUB_FINS
 62
   251
  5
86C
 10
-62.995501
 20
3.149363
 30
-3.161103
 70
    64
  0
VERTEX
  8
HUB_FINS
 62
   251
  5
86D
 10
-63.133414
 20
3.374715
 30
-3.030996
 70
    64
  0
VERTEX
  8
HUB_FINS
 62
   251
  5
86E
 10
-63.271327
 20
3.149363
 30
-3.161103
 70
    64
  0
VERTEX
  8
HUB_FINS
 62
   251
  5
86F
 10
-63.329559
 20
2.884168
 30
-3.314213
 70
    64
  0
VERTEX
  8
HUB_FINS
 62
   251
  5
870
 10
-63.361789
 20
2.615525
 30
-3.469314
 70
    64
  0
VERTEX
  8
HUB_FINS
 62
   251
  5
871
 10
-63.378007
 20
2.345764
 30
-3.625061
 70
    64
  0
VERTEX
  8
HUB_FINS
 62
   251
  5
872
 10
-63.383414
 20
2.075677
 30
-3.780996
 70
    64
  0
VERTEX
  8
HUB_FINS
 62
   251
  5
873
 10
-63.378007
 20
1.805591
 30
-3.93693
 70
    64
  0
VERTEX
  8
HUB_FINS
 62
   251
  5
874
 10
-63.361789
 20
1.535829
 30
-4.092677
 70
    64
  0
VERTEX
  8
HUB_FINS
 62
   251
  5
875
 10
-63.329559
 20
1.267186
 30
-4.247778
 70
    64
  0
VERTEX
  8
HUB_FINS
 62
   251
  5
876
 10
-63.271327
 20
1.001991
 30
-4.400889
 70
    64
  0
VERTEX
  8
HUB_FINS
 62
   251
  5
877
 10
-63.133414
 20
0.776639
 30
-4.530996
 70
    64
  0
VERTEX
  8
HUB_FINS
 62
   251
  5
878
 10
-63.019015
 20
8.072818
 30
-16.484352
 70
    64
  0
VERTEX
  8
HUB_FINS
 62
   251
  5
879
 10
-62.944837
 20
8.33501
 30
-16.332976
 70
    64
  0
VERTEX
  8
HUB_FINS
 62
   251
  5
87A
 10
-62.896416
 20
8.601824
 30
-16.17893
 70
    64
  0
VERTEX
  8
HUB_FINS
 62
   251
  5
87B
 10
-62.863919
 20
8.870481
 30
-16.023821
 70
    64
  0
VERTEX
  8
HUB_FINS
 62
   251
  5
87C
 10
-62.842197
 20
9.139953
 30
-15.868242
 70
    64
  0
VERTEX
  8
HUB_FINS
 62
   251
  5
87D
 10
-62.831275
 20
9.409914
 30
-15.71238
 70
    64
  0
VERTEX
  8
HUB_FINS
 62
   251
  5
87E
 10
-62.831168
 20
9.680041
 30
-15.556422
 70
    64
  0
VERTEX
  8
HUB_FINS
 62
   251
  5
87F
 10
-62.847119
 20
9.949777
 30
-15.40069
 70
    64
  0
VERTEX
  8
HUB_FINS
 62
   251
  5
880
 10
-62.889245
 20
10.217247
 30
-15.246266
 70
    64
  0
VERTEX
  8
HUB_FINS
 62
   251
  5
881
 10
-63.01335
 20
10.448541
 30
-15.112728
 70
    64
  0
VERTEX
  8
HUB_FINS
 62
   251
  5
882
 10
-63.164693
 20
10.229749
 30
-15.239048
 70
    64
  0
VERTEX
  8
HUB_FINS
 62
   251
  5
883
 10
-63.238871
 20
9.967557
 30
-15.390424
 70
    64
  0
VERTEX
  8
HUB_FINS
 62
   251
  5
884
 10
-63.287292
 20
9.700743
 30
-15.54447
 70
    64
  0
VERTEX
  8
HUB_FINS
 62
   251
  5
885
 10
-63.319789
 20
9.432086
 30
-15.699579
 70
    64
  0
VERTEX
  8
HUB_FINS
 62
   251
  5
886
 10
-63.341512
 20
9.162615
 30
-15.855158
 70
    64
  0
VERTEX
  8
HUB_FINS
 62
   251
  5
887
 10
-63.352433
 20
8.892653
 30
-16.01102
 70
    64
  0
VERTEX
  8
HUB_FINS
 62
   251
  5
888
 10
-63.352541
 20
8.622526
 30
-16.166978
 70
    64
  0
VERTEX
  8
HUB_FINS
 62
   251
  5
889
 10
-63.336589
 20
8.352791
 30
-16.32271
 70
    64
  0
VERTEX
  8
HUB_FINS
 62
   251
  5
88A
 10
-63.294464
 20
8.08532
 30
-16.477135
 70
    64
  0
VERTEX
  8
HUB_FINS
 62
   251
  5
88B
 10
-63.170358
 20
7.854026
 30
-16.610672
 70
    64
  0
SEQEND
  8
HUB_FINS
 62
   251
  5
88C
  0
INSERT
  8
AME_FRZ
  5
8B9
  2
AME_NIL
 10
0.0
 20
0.0
 30
0.0
  0
INSERT
  8
AME_FRZ
  5
8BA
  2
AME_SOL
 10
0.0
 20
0.0
 30
0.0
1001
AME_SOL
1000
R2.1_c2
1000
AME2
1000
sq cm
1070
     3
1070
     0
1070
     3
1000
wire
1040
45.0
1000
U
1040
1.0
1000
cm
1000
gm
1000
MILD_STEEL
1070
    25
1000
CSG
1070
     1
1070
     3
1070
     3
1070
     3
1070
     0
1000
cu cm
1070
     1
1070
     0
1005
8B9
  0
INSERT
  8
AME_FRZ
  5
905
  2
*U5
 10
0.0
 20
0.0
 30
0.0
  0
ENDSEC
  0
EOF
